Cifras Web
Banda Enigma

Melhor Pra Nós (cifragem Completa)

Banda Enigma

17 acessos


Introdução: Dm7 Dm7/C Dm7/ B Dm7/ Bb

Vocalização...

(Dm7 Dm7/C Dm7/ B Dm7/ Bb)
Os meus olhos não podem ver e nem sentir,
O que está pra acontecer, o que está por vir,
Não depende mais de você, e sim de mim,
Dar um basta nessa história, sem fim.

F C Dm
Tantas vezes fiz de tudo
Bb
Pra fazer o melhor pra nós,
F C
Mas foi tudo em vão
Dm Bb
O que fiz por você, meu coração.

(Dm7 Dm7/C Dm7/ B Dm7/ Bb)
Gostaria de poder sorrir, de tentar se enganar,
Acerditar que está perfeito, em seu devido lugar,
Mas a realidade é outra,
Basta você olhar...

F C Dm
Tantas vezes fiz de tudo
Bb
Pra fazer o melhor pra nós,
F C
Mas foi tudo em vão
Dm Bb
O que fiz por você, meu coração.

(G A#)
A ferida está aberta,
(G A# C)
Nosso amor acabou na certa.

Solo: ( F C Dm Bb)


E|------------------------------------------------------------------------------------------|

B| -------------13--------------------------------------------------------------------------|
G| -10 ~ -9-10----10-9-10-9h10h9------------10----10-12-12 ^ -12-10-12-10 ~--|
D| ------------------------------------12-10-12----12-------------------------------------|
A| -------------------------------------------------------------------------------------------|
E| ------------------------------------------------------------------------------------------|


E|------------------13----13-15-15 ^ -15-13-15-13 ~ |
B|-------13-15-------15--------------------------------- |
G|-9-10--------------------------------------------------- |
D|----------------------------------------------------------|
A|----------------------------------------------------------|
E|-----------------------------------------------------------|


F C Dm
Tantas vezes fiz de tudo
Bb
Pra fazer o melhor pra nós,
F C
Mas foi tudo em vão
Dm Bb
O que fiz por você, meu coração.

(Acordes com 5ª)

F F/E
Foi tudo em vão, foi tudo em vão,
D A#
O que fiz por você meu coração.

Dm7 Dm7/C Dm7/ B Dm7/ Bb F

Top cifras de Banda Enigma

  1. Isso Não É Amor
  2. Tempo Perdido
  3. Melhor Pra Nós (cifragem Completa)
  4. Melhor Pra Nós

Pela Web