Cifras Web
Banda Êxodo

Galhos Secos

Banda Êxodo

8 acessos


E|--0--7--5--3--2------------------|
B|-----------------2--0------------|
G|---------------------------------|
D|---------------------------------|
A|---------------------------------|
E|---------------------------------|


                      C
Nos galhos secos de uma árvore qualquer
          D                   Em
Onde ninguém jamais pudesse imaginar

E|--0--7--5--3--2------------------|
B|-----------------2--0------------|
G|---------------------------------|
D|---------------------------------|
A|---------------------------------|
E|---------------------------------|


           C      D       Em
O Criador vê uma flor a brotar
                C                  D         Em
Olhai, olhai, olhai. Os lírios cresceram no campo
                   C                D                 G
E o Senhor nosso Deus os tem alimentado para nossa alegria

               C       D
Para nossa alegria a-a-a
               Em
Para nossa alegria

(tudo 2x)

TOP cifras de Banda Êxodo

  1. Não Há Amor Maior
  2. Por Amor
  3. Quero Gritar
  4. Galhos Secos
  5. Posso Saber
  6. O Guarda de Israel
  7. Realidade

Pela Web