Banda Flash

Anna Júlia

Banda Flash

Afinação: Meio tom Abaixo (Eb)

Intro: E C#m (2x)

E C#m G#m A B E
Quem te ver passar assim por mim não sabe o que é sofrer
C#m G#m A B
Ter que ver você assim sempre tão linda
E C#m G#m A B E
Contemplar o sol do teu olhar perder você no ar
C#m G#m A B C#m
Na certeza de um amor me achar um nada
G#m A
Pois sem ter teu carinho eu me sinto sozinho
B B B
Eu me afogo em so...li....dão

E A B
Ô ô Anna Julia...a...a...a...a
E A B
Ô ô Anna Julia...a...a...a...a

E C#m G#m A B E
Nunca acreditei na ilusão de ter você pra mim
C#m G#m A B
Me atormenta a previsão do nosso destino
E C#m G#m A B E
Eu passando o dia a te esperar, você sem me notar
C#m G#m A B C#m
Quando tudo tiver fim, você vai estar com um cara
G#m A
Um alguém sem carinho será sempre um espinho
B B B
Dentro do meu co...ra...ção

E A B
Ô ô Anna Julia...a...a...a...a
E A B
Ô ô Anna Julia...a...a...a...a

SOLO:
E|-----------|--------------
B|-----------|--------------
G|-----------|-------------- 2x
D|-2-2-2-4-2-|-2-2-2-4-2-1--
A|-----------|--------------
E|-----------|--------------

e|--------------------------------------------------
B|-5-5-5-7-5-|-5-5-5-7-5-4-5------------------------
G|--------------------------------------------------
D|--------------------------------------------------
A|--------------------------------------------------
E|--------------------------------------------------

e|------------------------------|-------------------
B|------------------------------|-------------------
G|------------------------------|-------------------
D|------------------------------|-------------------
A|------------------------------|-2-4-2-4-----------
E|-12/--------------------------|-------------------

e|-----------------|---------|-12-12-11-------11-12-14-14-14-14-14-14-14-14---
B|-5-5-4-0-2-------|---------|----------12-14---------------------------------
G|-----------4-2-4-|---------|------------------------------------------------
D|-----------------|---------|------------------------------------------------
A|-----------------|-2-4-2-4-|------------------------------------------------
E|-----------------|---------|------------------------------------------------

Base: E A B (4x)
C#m G#m A E
C#m G#m A B

C#m G#m A E
Sei que você já não quer mais o meu amor
C#m G#m A E
Sei que você já não gosta de mim
C#m G#m A E
Eu sei que eu não sou quem você sempre sonhou
C#m G#m A B B
Mas vou reconquistar o seu amor todo pra mim

E A B
Ô ô Anna Julia...a...a...a...a
E A B
Ô ô Anna Julia...a...a...a...a
E A B
Ô ô Anna Julia...a...a...a...a
E A B E
Ô ô Anna Julia...Julia, Julia...uo uo uo

Curte essa cifra? Compartilhe com seus amigos:


Pela Web

Deixe seu comentário