Banda Flash

Razões e Emoções

Banda Flash


Intro: D#5 D#5/D C5 Bb5

(Riff 1):

E|------------------|
B|-6-6-6-6-6-6-6-6--|
G|--8-8-8-8-8-8-8-8-|
D|------------------|
A|------------------|
E|------------------|


(Riff 2):

e|-----------------------------------------------------------------|
G|-6-6-6-6-9-9-8-8-6-6-6-6-9-9-8-8-6-6-6-6-9-9-8-8-6-6-6-6-6-6-6-6-|
B|--8-8-8-8-8-8-8-8-8-8-8-8-8-8-8-8-8-8-8-8-8-8-8-8-8-8-8-8-8-8-8-8|
D|-----------------------------------------------------------------|
A|-----------------------------------------------------------------|
E|-----------------------------------------------------------------|


(solo do gee junto com a base do fi):

|-------------------------------------------------------------------
|-------------------------------------------------------------------
|-7-7-7/8-8-8-8--7-7-7--8-8-8-8--12-12--8-8-8-8--10101010-8--7-7-7--
|-x-x-x-x-x-x-x--x-x-x--x-x-x-x--x--x---x-x-x-x--x-x-x-x--x--x-x-x--
|-5-5-5/6-6-6-6--5-5-5--6-6-6-6--10-10--6-6-6-6--8-8-8-8--6--5-5-5--
|-------------------------------------------------------------------


D#5 D#5/D
Dizer o que eu posso dizer
C5
Se estou cantando agora pra você
Bb5
Ouvir com outra pessoa
D#5 D#5/D
É que as vezes acho que não sou o melhor pra você
C5 Bb5
Mas as vezes acho que poderíamos ser o melhor pra
F5 F5 E5 F5 E5 F5 E5
Nós dois

só quero que saiba

|---------------------------------------------------
|---------------------------------------------------
|---------------------------------------------------
|-3---3---3---3---3---3---3---3--5--6---------------
|-3---3---3---3---3---3---3---3--5--6---------------
|-1-0-1-0-1-0-1-0-1-0-1-0-1-0-1--3--4---------------


G5 G#5
Só quero que saiba
R C5 G#5
E Entre razões e emoções a saída
F D#5 A#5
R É fazer valer a pena
à C5 G#5
O Se não agora depois não importa
D#5 A#5
Por você posso esperar.

(Intro) D#5 D#5/D C5 Bb5 (com o riff 2 junto)

D#5 D#5/D
Sentir o que eu posso sentir
C5
Se em um segundo tudo acabar
Bb5
Não vou ter como fugir
D#5 D#5/D
É que as vezes acho que não sou o melhor pra você
C5 Bb5
Mas as vezes acho que poderíamos ser o melhor pra
F5
nós dois
G5 G#5
Só quero que saiba

(Refrão com o dedilhado)

|--------------------------------------------------------
|-------4------------4-----------------------------------
|-----5---5-----------------------8------------7-8/5-----
|---5-------5------6---6------8-----8--------8-----------
|-3--------------6-------6--6---6-----6----8-------------
|--------------4-------------------------6---------------


Entre razões e emoções a saída
É fazer valer a pena
Se não agora depois não importa
Por você posso esperar.


|---------------------------------------------------
|---------------------------------------------------
|--8-7--8-7---8-7---8-7-----------------------------
|-----8----7-----7-----7----------------------------
|-6---------6---------------------------------------
|-----------------6---------------------------------


(Solo):

E|----------------------------------------------------------
B|----------------------------------------------------------
G|-8-8-8-8-12-12-12-12-13-13-13-13-17-17-17-17-15-15-15-15--
D|----------------------------------------------------------
A|-6-6-6-6-10-10-10-10-11-11-11-11-15-15-15-15-13-13-13-13--
E|----------------------------------------------------------



E|-------------------------------------
B|-------------------------------------
G|-13-13-13-13-12-12-12-12-7-7-7-7-----
D|-------------------------------------
A|-11-11-11-11-10-10-10-10-5-5-5-5-----
E|-------------------------------------



E|------------------------------------------------------------------
B|------------------------------------------------------------------
G|-3/5-5-5-5-3-3-----------------10/12-12-12-12-10-10-10------------
D|---------------6-6-6-6-6-6-6-6------------------------8-8-8-8-8-8-
A|-1/3-3-3-3-1-1------------------8/10-10-10-10-8--8--8-------------
E|---------------4-4-4-4-4-4-4-4------------------------6-6-6-6-6-6-


(Refrão 2x) - (na segunda vez entra o backing vocal (isso vai passar..........tudo vai melhorar!)

G5 G#5
Só quero que saiba
R C5 G#5
E Entre razões e emoções a saída
F D#5 A#5
R É fazer valer a pena
à C5 G#5
O Se não agora depois não importa
D#5 A#5
Por você posso esperar.
G#5
posso esperar - (4x)

Curte essa cifra? Compartilhe com seus amigos:


Pela Web

Deixe seu comentário