Cifras Web
Banda Guaypeka

Dona Tita

Banda Guaypeka

10 acessos


e|7-5-4-----------7-9----------------------|
B|------7-5---7-5-----9-7-5---5-7----------|
G|----------6---------------6--------------|
D|-----------------------------------------|
A|-----------------------------------------|
E|-----------------------------------------|


Seu Miguel e dona Tita 
E7
No arrasto seu Miguel matou

Matou tainha 

No almoço dona Tita fez

Arroz feijão pirão tainha frita
         G7      A7          E7
Oi oi oi oi olha o carro de boi
 G7      A7         E7
Olha a roça de mandioca
            G7           A7     E7
Pra fazer farinha , pra fazer farofa
            G7
Pra fazer beiju
A7          E7
Pra fazer pirão 
G7   A7     E7
Pra fazer pirão 
G7   A7     E7
Pra fazer pirão 
      G7             A7        E7
Ê,ê,ê ê bota esse engenho pra moer
              G7           A7     E7
Que eu quero ver essa engrenagem ranger

Solo: 

e|7-5-4----7-5-4-7-7-7-5-4-----7^5^4--------0|
B|-----5-5-----------------7-5------7^5-5---5|
G|-------------------------------------6-6--7|
D|------------------------------------------6|
A|------------------------------------------7|
E|------------------------------------------0|


G7          A7         E7 
e|3         e|5        e|0
B|3         B|5        B|5
G|4         G|6        G|7
D|3         D|5        D|6
A|5         A|7        A|7
E|3         E|5        E|0

Top cifras de Banda Guaypeka

  1. Agarradinho
  2. Canteiros
  3. Ive Brussel
  4. Pingos de Amor
  5. Está Certo
  6. Ai Que Saudade Di Ocê
  7. Foi No Forró
  8. Fogueira
  9. É ...
  10. Março

Pela Web