Cifras Web
Banda Guaypeka

Fogueira

Banda Guaypeka

12 acessos


Intro:(G, C)
e|-3-2-0--------------------------------------------------------|
B|-------3-2-0-2-0-3-2-0----------------------------------------|
G|-----------------------0-0-2-0-2-4-2-0-2-0-2-0-2-4-2-0-2-4-2--|
D|--------------------------------------------------------------|
A|--------------------------------------------------------------|
E|-3-3-3-3-3-3-3-3-3-3-3-3-3-3-3-3-3-3-3-3-3-3-3-3-3-3-3-3-3-3--|


e|-----------3-0---------------------------3-0------------------|
B|---------1-----3-1-0-1-----------------1-----3-1-0-1----------|
G|-------0-----------------------------0------------------------|  
D|-0-----------------------------0------------------------------|
A|---0-3---------3-3-3-3-----------0-3---------3-3-3-3----------|
E|--------------------------------------------------------------|

 (Am, C, G)                   
  Brincos de rabo  de baleia
  Colar de conchas e corais
  O mar o céu e a lua Cheia
  Colar de conchas e corais
  Brincos de rabos de baleia

  Neste lugar te contemplo
  Neste lugar te contemplo

  Eu quero ver o mar
  Todos os dias
  Hojala
  Que Jha nos permita

  Os pés descalços na areia
  A onda leva e traz o teu olhar
  Linda sereia
  A onda leva e traz o teu olhar

  Neste lugar te contemplo
  Neste lugar te contemplo

  Eu quero ver o mar
  Todos os dias
  Hojala
  Que Jha nos permita
Em      Bm            Em
  Um violão e uma fogueira 
         Bm          C   
  E só a lua é testemunha
           D
  Deste momento bom
Em          Bm
  É só nós dois aqui agora
Em          Bm         C 
  O tempo para e já é hora
      D
  Vem me beijar
  C         D  
  Vem me beijar
(G,C)D7*,C7)
Riff

D7*
e|0
B|3
G|5
D|4
A|5
E|0

Top cifras de Banda Guaypeka

  1. Agarradinho
  2. Canteiros
  3. Ive Brussel
  4. Pingos de Amor
  5. Está Certo
  6. Ai Que Saudade Di Ocê
  7. Foi No Forró
  8. Fogueira
  9. É ...
  10. Março

Pela Web