Cifras Web
Banda Harmonia Evangélica

Ao Lado Rei

Banda Harmonia Evangélica

9 acessos

Intro: D  Dsus  D  A  Bm  G

       D  A  Bm  G  A  D  A
E|-----------|-10-9-7----------------------|
B|---5-7~10--|-------7~3/5-7-8-8-7-5-5-7---|
G|--7--------|----------------------7---7--|
D|-7---------|---------------------------7-|
A|-----------|-----------------------------|
E|-----------|-----------------------------|



E|----------|-14-12-10------------------------------------|
B|---5-7~10-|-15-14-12----7-8~7---10-8-7---7--------------|
G|--7-------|----------7/9------9-------9-7-7-------------|
D|-7--------|--------------------------------7/9/7--------|
A|----------|-------------------------------------7/9/7-0-|
E|----------|---------------------------------------------|


D                              A
A minha alma esta cheia de paz
G                           D
A minha alma esta cheia de amor
D                           A
Eu tenho gozo e prazer em dizer
G                           D
Que a minha alma cheia de paz.

D                              A
Eu vou canta no céu eu vou cantar
         G                      D
um lindo hino no céu eu vou cantar
D                      A
ao lado do nosso salvador
     G      A             D   G D
Entoaremos um grande louvor.

         A              A
Vamos subir, vamos cantar
            G            G
Ao lado do rei vamos mora
            D          D
E não a inimigo que possa
                   A
Impedir a nossa vitoria
A                   A
Vamos seguir a caminha
           G                 G
por que Jesus e a nossa Parada e chegando
      D        A                D
ao lado do rei nos iremos vencer.

(Intro)

TOP cifras de Banda Harmonia Evangélica

  1. Ao Lado Rei
  2. 500 Graus
  3. Estava Sozinho
  4. Minha Benção
  5. Rosa de saron

Pela Web