Cifras Web
Banda Korvos

Pensando Em Você

Banda Korvos

10 acessos

Riff 1::Essa fiff vai até namorar com você e retorna depois do solo.

             E||-----------------------------------------------------------------||
             B||-----------------------------------------------------------------||
             G||-------------------------------7-7-7-7-7-------------------------||
             D||-----9-9-9-9-9----5-5-5-5-5----7-7-7-7-7----7-7-7-7-7------------||
             A||-----9-9-9-9-9----5-5-5-5-5----5-5-5-5-5----7-7-7-7-7------------||
             E||-----7-7-7-7-7----3-3-3-3-3-----------------5-5-5-5-5------------||

Riff 2:essa riff é usada e namorar com você.

E||----------------------------||
B||----------------------------||
G||----------------------------||
D||-----5-5--7-7--9-9-9-9-9----|| repete 4 vezes a seqüência e depois 
A||-----5-5--7-7--9-9-9-9-9----|| retorna para a Riff 1
E||-----3-3--5-5--7-7-7-7-7----||

                            Pensando em você
(Riff 1)
Meu pensamento tão sempre ativo
Não para mais de pensar em você
Dês da primeira vês que ti vi
Eu só consigo pensar em você

Nunca pensei que ti conhecendo
Começaria a gostar de você
Sempre te vejo pulando e correndo
O teu sorriso não posso esquecer

Garota bonita sorriso perfeito
Menina que eu sonhei em ter 
Espero que um dia eu também possa...

(Riff 2)
Namorar com você
Namorar com você
Namorar com você

(Riff 1)
Nunca pensei que ti conhecendo
Começaria a gostar de você
Sempre te vejo pulando e correndo
O teu sorriso não posso esquecer

Garota bonita sorriso perfeito
Menina que eu sonhei em ter
Espero que um dia eu também possa...

TOP cifras de Banda Korvos

  1. Pensando Em Você
  2. Um Ano Se Passou
  3. Bolinho de Arroz
  4. Lembranças

Pela Web