Cifras Web
Banda Paraquedas

É Tudo Improviso

Banda Paraquedas

33 acessos


 Base: D  E  A  G
E|-------------------------------------10-12-10-12-10-14b15--12--12-12-12-10-12----|
B|---------------------------------------------------------------------------------|
G|---------------------------------------------------------------------------------|
D|-------------5-------------------------------------------------------------------|
A|---7--7-7-5-7-7-5-5h7--7-7-5-5-5h7-----------------------------------------------|
E|----------------------------7----------------------------------------------------|



 Base: D5  E5  A  G
E|---12--12-12-10-12-12-12-10-12-12-12-10--10-10h12-x-x-x-x-x-10-12----------------| 
B|---------------------------------------12----------------------------------------|



 Base: D  E5  A5  G5
D|-------------4/5-----------------------------------------------------------------|  
A|---5-7-5-7-5-----7---7-7-7-5-7---------------------------------------------------|


É tudo improviiiiso,vamo improvisá
É tudo improviso,vamo improvisar

TOP cifras de Banda Paraquedas

  1. É Tudo Improviso
  2. Jogo da Cantada
  3. Troca-Troca

Pela Web