Cifras Web
Banda Pop Show

Amor Ardente

Banda Pop Show

32 acessos

Intro: A#m  G#

E|----13--------------------------------11---------------------------------13|
B|--14--16-14-16-14-13-14-------------13--14-13-14-13------------------------|
G|15----------------------15--------13----------------13-13/14-13h14-13h14---|
D|---------------------------15~---------------------------------------------|
A|---------------------------------------------------------------------------|
E|---------------------------------------------------------------------------|



E|----13--------------------------------11-----------------------------------|
B|--14--16-14-16-14-13-14-------------13--14-13-14-13------------------------|
G|15----------------------15--------13----------------13-13/14-13h14-13h14---|
D|---------------------------15~---------------------------------------------|
A|---------------------------------------------------------------------------|
E|---------------------------------------------------------------------------|



E|------------------------------------------------------|
B|----13-13-------13------------14-14-------14-13-------|
G|--13---------13----15-------15---------15-------------| (3x)
D|13--------13--------------15--------15----------------|
A|------------------------------------------------------|
E|------------------------------------------------------|



E|-----------------------------13-------13-------13/0---|
B|----13-13-------13--------14-------14-------14--------|
G|--13---------13----15--15-------15-------15-----------|
D|13--------13------------------------------------------|
A|------------------------------------------------------|
E|------------------------------------------------------|


       A#m                     G#
Sou um homem inocente por toda vida
                     A#m
Necessito de uma mulher
                       G#
Uma noite a mulher me abandonou
                             A#m
E no meu quarto comecei a sofrer

F#          G#
Essa mulher que me abandonou
      C#         Ab/C
Machucou meu coração
 A#m
Adoro essa mulher
       F#
Não consigo resistir
    G#
Só quero te amar
      A#m
Vou esperar você voltar

                     F#
Vou te amar como a primeira vez
 G#    A#m
Amor ardente
                 F#
Para por fogo nessa mulher
     G#                     A#m
Vou dar um banho de língua quente

    F#       C#
Meu bem, eu quero
           G#     A#m     G#
Os lábios seus, ooohh...
   F#                 C#
Me beija amor, quero sentir
       G#                   A#m
Outra vez, como na primeira vez
 F#             G#
Oooh, oh, oh, oooh...

Solo 8x: A#m  G# 

    A#m             F#
Na penumbra do meu quarto
     G#         A#m
Ouço passos na escada
                   F#
Ligo a luz na madrugada
     G#                          A#m
E procuro no meu quarto a minha amada
                       F#
Sinto o cheiro do teu corpo
    G#                         A#m
Na luz eu vejo a sombra do teu rosto

F#          G#
Essa mulher que me abandonou
      C#         Ab/C
Machucou meu coração
 A#m
Adoro essa mulher
       F#
Não consigo resistir
    G#
Só quero te amar
      A#m
Vou esperar você voltar

                     F#
Vou te amar como a primeira vez
 G#    A#m
Amor ardente
                 F#
Para por fogo nessa mulher
     G#                     A#m
Vou dar um banho de língua quente

    F#       C#
Meu bem, eu quero
           G#     A#m     G#
Os lábios seus, ooohh...
   F#                 C#
Me beija amor, quero sentir
       G#                   A#m
Outra vez, como na primeira vez
 F#             G#    A#m
Oooh, oh, oh, oooh...
G#                         A#m
Como da primeira vez

Solo: A#m  G#

Top cifras de Banda Pop Show

  1. Amor Ardente
  2. Nossa História Linda de Amor
  3. Só da Você
  4. Anjo Lindo
  5. Estação do Amor
  6. Livro do Amor
  7. Já Tentei Te Esquecer

Pela Web