Cifras Web
Banda Shalon

Seu Sangue

Banda Shalon

8 acessos

Intro: F#m
                                 (-----------------2x--------------------)
E|12---------------12-------------12---------------12--------------------||
B|--10-12-----10-----10-12----10----10-12----10------10-12----10---------||
G|-------9-11-------------9-11-----------9-11-------------9-11-----------||
D|-----------------------------------------------------------------------||
A|-----------------------------------------------------------------------||

E|-----------------------------------------------------------------------||


(riff 1) - Enquanto canta o 1° Estrofe

E|-------------------------------10-10-9-9---------||
B|-10-10-10-9-9-9-10-10-10-9-9-9-------------------||
G|-------------------------------------------------||
D|-------------------------------------------------||
A|-------------------------------------------------||
E|-------------------------------------------------||


(riff 2) Na parte que canta: "Ele já venceu" é assim:

E|--------------------------------------------------------||
B|-10-10-10-9-9-9-10-10-10-9-9-910-10-9-9-----------------||
G|--------------------------------------------------------||
D|--------------------------------------------------------||
A|--------------------------------------------------------||
E|--------------------------------------------------------||


(Riff 1)
A5           E
Seu sangue,  Sua cruz
F#m5           D
Me levam de volta pra Deus
A5          E
Sua morte,   Sua vida
F#m5          D  (Riff 2)
As trevas,  ele já venceu
    A5           E      F#m5   D
E|----------------------------------------------------------
B|-101010101010-999999--------777777------------------------
G|-9 9  9 9 9 9-999999--------777777------------------------
D|-7 7  7 7 7 7-999999-444444-777777------------------------
A|---------------------444444-------------------------------
E|---------------------222222-------------------------------

E5         D5            E5           D5
Seu amor me conquistou, Sou eterno devedor

E|-h7-h7-h7-h7------
B|------------h7----
G|--------------h7--
D|------------------
A|------------------
E|------------------


G5                D5
O véu se rasgou
                       F#m
Sua luz em mim brilhou
                   E                   Bm   E
Sua glória me cobriu Mais que vencedor eu sou
                   Bm  E
Mais que vencedor eu sou

A5                          E E9 E E9
Sei que na sala do trono está
               A5/F#
Eu quero ir pra lá
            D D9 D D9
Pelo novo e vivo caminho
Solo:
E|--12-9---------------------------------||
B|-------10----12-9-10----------10--9----||
G|----------11--------11-9---11----------||
D|------------------------12-------------||
A|---------------------------------------||
E|---------------------------------------||

TOP cifras de Banda Shalon

  1. Minha Benção
  2. Seu Sangue
  3. Vencedor

Pela Web