Cifras Web
Banda V8

Toda Forma de Amor (Ao Vivo)

Banda V8

57 acessos


Intro: G  Em  D7/11  C
E|---------------------------------------|
B|---------------------------------------|
G|---------------------------------------|    (2x)
D|-----5----7----------5--9--7--5--------|
A|5--7---------5----7----------------7--5|
E|---------------------------------------|



E|------------------------------------------|
B|------------------------------------------|
G|------------------------------------------|
D|-----5----7----------5--9--7--5-----------|
A|5--7---------5----7----------------7--5--3|
E|------------------------------------------|


G
 Eu não pedi pra nascer
Em
   Eu não nasci pra perder
D                              C
 Nem vou sobrar de vítima das circunstâncias

G
 Eu tô plugado na vida
Em
   Eu tô curando a ferida
D                         C              (G Em)
 Às vezes eu me sinto uma bala perdida

G
 Você é bem como eu
Em
   Conhece o que é ser assim
D                              C
 Só que dessa história ninguém sabe o fim

G
 Você não leva pra casa
Em
   E só traz o que quer
D                         C
 Eu sou teu homem, você é minha mulher

G
 E a gente vive junto
G5+
   E a gente se dá bem
        C
Não desejamos mal
  Cm       D7/11
A quase ninguém

G
 E a gente vai à luta
G5+
   E conhece a dor
       C
Consideramos justa
Cm  D7/11      (G Em D7/11 C)
Toda forma de amor

G                           C
 Eu não pedi... até ...das circunstâncias
G                        Cm  D7/11      ( G  Em  D7/11  C )
 Você não leva... até ...toda forma de amor

(Solo)

TOP cifras de Banda V8

  1. Toda Forma de Amor (Ao Vivo)
  2. Sem Você

Pela Web