Cifras Web
B.A.P (K-pop)

1004 (angel)

B.A.P (K-pop)

166 acessos

Obs: Intro e Riff 3 são partes que só tem no MV 

Intro

E|----------------------------------------------------|
B|----------------------------------------------------|
G|----------------------------------------------------|
D|---------------------------------------------4-2----|
A|--9-9-10-9------5-5-7-5------5-5-7-----5-5-7--------|
E|-7-7-7-7-------3-3-3-3------4-4-4-----3-3-3-3-3-----|


Riff 1

E|--5h7p5-----------|
B|--------7-5-------| (3x)
G|------------7-4---|


Riff 2

E|-----------------------|
B|--5h7p5-----------7----|
G|--------7-5h7s9--------|


Base (Bm  D  A  G)

 Riff 3

E|-------------------------|
B|-------------------------|
G|-------------------------|
D|------------------4-2----|
A|--5-5-7-----5-5-7--------|
E|-4-4-4-----3-3-3-3-3-----|



E|----------------------------------------------------|
B|----------------------------------------------------|
G|----------------------------------------------------|
D|---------------------------------------------4-2----|  (2x)
A|--9-9-10-9------5-5-7-5------5-5-7-----5-5-7--------|
E|-7-7-7-7-------3-3-3-3------4-4-4-----3-3-3-3-3-----|



E|-----------------------------------------|
B|-----------------------------------------|
G|-----------------------------------------|
D|-----------------------------------------|
A|--9-9-10-9------5-5-7-5------5-5-7-------|
E|-7-7-7-7-------3-3-3-3------4-4-4-----3--|


(Bm  D  A  G)

Top cifras de B.A.P (K-pop)

  1. 1004 (angel)
  2. Coffee Shop

Pela Web