Cifras Web
Baranga

Maverick

Baranga

15 acessos

Intro:

E|-------------|-----------|-----------|
B|-------------|-----------|-----------|
G|-------------|-----------|-----------|4x
D|-------------|-----------|-----------|
A|-2-2-4-5-5-7-|-5-5-5-7-5-|-5-5-5-7-5-|
E|-0-0-2-3-3-3-|-3-3-3-3-3-|-3-3-3-3-3-|


Riff do Verso:

E|-------------|
B|-------------|
G|-------------|
D|-------------|
A|-2-2-4-5-5-7-|
E|-0-0-2-3-3-3-|

Com um motor V-8 canadense
Meu maverick fica mais potente
Tomando multa em qualquer estrada
Se eu for vender não vale mais nada.

C5
Meu maverick
G5
Cor de prata
Bb5             F5
Bebe mais que o dono
C5           G5    G5 A5 Bb5
Ninguém ultrapassa

Bb5     F5
Meu maverick... Uh Uh...
C5        G5  G5 A5 Bb5
Cor de prata
Bb5               F5
Já não vale um centavo não
G5
Já não vale nada.


E|-------------|-----------|-----------|
B|-------------|-----------|-----------|
G|-------------|-----------|-----------|2x
D|-------------|-----------|-----------|
A|-2-2-4-5-5-7-|-5-5-5-7-5-|-5-5-5-7-5-|
E|-0-0-2-3-3-3-|-3-3-3-3-3-|-3-3-3-3-3-|


Riff do Verso:

E|-------------|
B|-------------|
G|-------------|
D|-------------|
A|-2-2-4-5-5-7-|
E|-0-0-2-3-3-3-|

Quando ligo o motor
Vai dois litros de uma vez
Som ensurdecedor
No racha não tem pra ninguém.


C5
Meu maverick
G5
Cor de prata
Bb5             F5
Bebe mais que o dono
C5           G5    G5 A5 Bb5
Ninguém ultrapassa

Bb5     F5
Meu maverick... Uh Uh...
C5        G5  G5 A5 Bb5
Cor de prata
Bb5               F5
Já não vale um centavo não
G5
Já não vale nada..

Base solo: Eb Bb G Bb (Repete 3x)
           Eb Bb G G G G


E|-------------|-----------|-----------|
B|-------------|-----------|-----------|
G|-------------|-----------|-----------|2x
D|-------------|-----------|-----------|
A|-2-2-4-5-5-7-|-5-5-5-7-5-|-5-5-5-7-5-|
E|-0-0-2-3-3-3-|-3-3-3-3-3-|-3-3-3-3-3-|


Riff do Verso:

E|-------------|
B|-------------|
G|-------------|
D|-------------|
A|-2-2-4-5-5-7-|
E|-0-0-2-3-3-3-|

Velocímetro quebrado
Por ter estourado
Sempre tem uma gata
Para ser amada.

C5
Meu maverick
G5
Cor de prata
Bb5             F5
Bebe mais que o dono
C5           G5    G5 A5 Bb5
Ninguém ultrapassa

Bb5     F5
Meu maverick... Uh Uh...
C5        G5  G5 A5 Bb5
Cor de prata
Bb5               F5
Já não vale um centavo não
G5
Já não vale nada.

C5
Meu maverick
G5
Cor de prata
Bb5             F5
Bebe mais que o dono
C5           G5    G5 A5 Bb5
Ninguém ultrapassa

Bb5      F5
Meu maverick... Uh Uh...
C5   G5   G5 A5 Bb5
Rebaixado
Bb5              F5
Foi pro pátio do Detran
G5
E tá enferrujando.

E|-------------|-----------|-----------|
B|-------------|-----------|-----------|
G|-------------|-----------|-----------|4x
D|-------------|-----------|-----------|
A|-2-2-4-5-5-7-|-5-5-5-7-5-|-5-5-5-7-5-|
E|-0-0-2-3-3-3-|-3-3-3-3-3-|-3-3-3-3-3-|

TOP cifras de Baranga

  1. Filho Bastardo
  2. Baranga
  3. Maverick
  4. Meu Mal
  5. Tudo o que eu tenho na vida
  6. Whiskey do Diabo
  7. Duas Rodas

Pela Web