Cifras Web
Bardoefada

Chifres São Coisas da Tua Cabeça

Bardoefada

12 acessos

Intro: F  G  Dm

F           G               Dm
Chifres são coisas da tua cabeça
F           G               Dm
Chifres são coisas da tua cabeça
F                  G                 Dm
Meu bem, meu doce, meu docinho não esqueça
F           G               Dm
Chifres são coisas da tua cabeça

F            G
Gostar de um outro alguém
     Dm          F  G
Isso tão normal
        Dm
Chega a ser banal
F        G             Dm
E são de mil canções dizendo a mesma coisa
                                  F     G      Dm
Mas parece que ninguém quer entender

F           G               Dm
Chifres são coisas da tua cabeça
F           G               Dm
Chifres são coisas da tua cabeça
F                  G                 Dm
Meu bem, meu doce, meu docinho não esqueça
F           G               Dm
Chifres são coisas da tua cabeça

F    G              Dm
Confiança é uma questão de compreensão e de cooperação
F                 G                   Dm
E não tem e nunca teve nada a ver com coisas do coração
           F                   G          Dm
E é a diversão que vai fazer a tua vida feliz
                                                 F                G
E o que que tem cada um sair pra um lado pra brincar de ser amado
            Dm
E depois voltar

F               G
    Eu quero tocar outro corpo
Dm
    E acariciar outro rosto
F           G               Dm
    E quero ver outro corpo nu
F              G
    E quero falar velhas coisas
Dm
    Como se fossem novidade
F              G                Dm
    E assim me sinto vivo de verdade

F           G               Dm
Chifres são coisas da tua cabeça
F           G               Dm
Chifres são coisas da tua cabeça
F                  G                 Dm
Meu bem, meu doce, meu docinho não esqueça
F           G               Dm
Chifres são coisas da tua cabeça

Solo:  F   G   Dm


E|-------------------------------------------------------------------------------------------------------------
B|----------------13^-------------------------------------------------------------10-10-10-10--12-12-12-12-----
G|-----------10--------12---12--10----------------10h12--10-----------------------10-10-10-10--12-12-12-12-----
D|--10h12-----------------------------12--10--12--------------- 12--10--12-------------------------------------
A|-------------------------------------------------------------------------------------------------------------
E|-------------------------------------------------------------------------------------------------------------

E|-------------------------------------------------------------------------------------------------------------
B|-------10-------------------------10-------------------------------------------------------------------------
G|-------10-------10h12--10---------10--------10h12--10------------------------9--7---------2------------------
D|--12-------12------------------12-------12-----------------12---7--9--10--7----------0h2-----2---------------
A|-------------------------------------------------------------------------------------------------------------
E|-------------------------------------------------------------------------------------------------------------

E|------------------------------------------------5------------------------------------------------------------
B|--3--1--------------4p3----------------6p5------6------------------------------------------------------------
G|--2--2--------3h5-------5-------5h7--------7----7---------------------------------12--14--15-----------------
D|---------3h5----------------5h7--------------------------------------12--14--15------------------------------
A|---------------------------------------------------------12--13--15------------------------------------------
E|-------------------------------------------------------------------------------------------------------------

E|---15^--15--13--15^---15p13-------13--------15p13-------13----------17p13-------13--15--13-------------------
B|------------------------------15--------15----------15-------15------------15------------------15------------
G|-------------------------------------------------------------------------------------------------------------
D|-------------------------------------------------------------------------------------------------------------
A|-------------------------------------------------------------------------------------------------------------
E|-------------------------------------------------------------------------------------------------------------

E|-------------------------------------------------------------------------------------------------------------
B|--------------------------------------------------------18p15------15--18--15--------------------------------
G|---------------10-10-10--12--10------12--10--------------------17-----------------17-------------------------
D|--3--5--------/12-12-12--12-----12---12------12--------------------------------------------------------------
A|--3--5-------------------------------------------------------------------------------------------------------
E|--1--3-------------------------------------------------------------------------------------------------------

E|--17p13-------13--15--13-----17------------13--15--13-------15^---15--13--15^--13----------------------------
B|----------15-------------15-------13h15-----------------15-------------------------15------------------------
G|-------------------------------------------------------------------------------------------------------------
D|-------------------------------------------------------------------------------------------------------------
A|-------------------------------------------------------------------------------------------------------------
E|-------------------------------------------------------------------------------------------------------------

TOP cifras de Bardoefada

  1. Chifres São Coisas da Tua Cabeça
  2. Sem Você
  3. Momento Único
  4. Se Eu Não Olhar Pra Você
  5. Ode Ao Ciúme
  6. Só Mais Blues
  7. Um Ano Na Seca
  8. Calibre 12
  9. Me Pala No Bas
  10. Quando Nada Mais Dá Certo

Pela Web