Cifras Web
Barney

Crap In My Pants

Barney

13 acessos

Intro Play 8x

e--15-12-14-13-13-13-12-5-6-4-
b--0-0-0-0-0-0-0-0-0-0-0-0-0--
g-----------------------------
d-----------------------------
a-----------------------------
e-----------------------------



Verse 1 play twice

e-------------------------------
b-------------------------------
g-------------------------------
d-------------------------------
a-------------------------------
e-0-2-0-3-0-4-0-1-0-8-8-8-7-5-2-



Chorus after this play intro then verse
e-15-17-6p-1-/2-3-3-3-4-5-1-5
b----------------------------
g----------------------------
d----------------------------
a----------------------------
e----------------------------

TOP cifras de Barney

  1. Ants Go Marching
  2. Crap In My Pants
  3. I Love You

Pela Web