Cifras Web
Bear McCreary

The Walking Dead Ost Main Theme

Bear McCreary

7 acessos


E|----------------------------------------------------|  x7
B|--------10-11-10----------10-11-10----------10-11---|
G|----------------------------------------------------|
D|-----12----------12----12----------12----12---------|
A|--10----------------10----------------10------------|
E|----------------------------------------------------|



----------------------------------------------------|  X2
--------6--7--6-----------6--7--6-----------6--7----|
----------------------------------------------------|
-----8-----------8-----8-----------8-----8----------|
--6-----------------6-----------------6-------------|
----------------------------------------------------|



----------------------------------------------------|  x2
--------3--4--3-----------3--4--3-----------3--4----|
----------------------------------------------------|
-----5-----------5-----5-----------5-----5----------|
--3-----------------3-----------------3-------------|
----------------------------------------------------|



----------------------------------------------------| x4
--------10-11-10----------10-11-10----------10-11---|
----------------------------------------------------|
-----12----------12----12----------12----12---------|
--10----------------10----------------10------------|
----------------------------------------------------|


----------------------------------------------------|
--------10-11-10----------10-11-10------------------|
----------------------------------------------------|
-----12----------12----12----------12----12---------|
--10----------------10----------------10----10------|
----------------------------------------------------|

TOP cifras de Bear McCreary

  1. Theme From The Walking Dead
  2. The Walking Dead Ost Main Theme

Pela Web