Cifras Web
Bear McCreary

Theme From The Walking Dead

Bear McCreary

10 acessos

E|----------------------------------------------------|  
B|--------10-11-10----------10-11-10----------10-11---|
G|----------------------------------------------------|  (7x)
D|-----12----------12----12----------12----12---------|
A|--10----------------10----------------10------------|
E|----------------------------------------------------|

E|----------------------------------------------------|  
B|--------6--7--6-----------6--7--6-----------6--7----|
G|----------------------------------------------------|  (2x)
D|-----8-----------8-----8-----------8-----8----------| 
A|--6-----------------6-----------------6-------------|
E|----------------------------------------------------|

E|----------------------------------------------------|  
B|--------3--4--3-----------3--4--3-----------3--4----|
G|----------------------------------------------------|
D|-----5-----------5-----5-----------5-----5----------|  (2x)
A|--3-----------------3-----------------3-------------|
E|----------------------------------------------------|

E|----------------------------------------------------| 
B|--------10-11-10----------10-11-10----------10-11---|
G|----------------------------------------------------| (4x)
D|-----12----------12----12----------12----12---------| 
A|--10----------------10----------------10------------|
E|----------------------------------------------------|

E|----------------------------------------------------|----||
B|--------10-11-10----------10-11-10------------------|----||
G|----------------------------------------------------|----||  
D|-----12----------12----12----------12----12---------|----||
A|--10----------------10----------------10----10------|----||
E|----------------------------------------------------|----||

TOP cifras de Bear McCreary

  1. Theme From The Walking Dead
  2. The Walking Dead Ost Main Theme

Pela Web