Cifras Web
Bethany Joy Lenz

Halo Intro

Bethany Joy Lenz

10 acessos

This is my first tab, just one night of tinkering after watching One Tree Hill.
Not too good with the chords yet, but tabbed the beginning of Haley James Scott
- Halo.  I think the rest is easy enough to figure out.  This is how I play it,
might not be accurate, but hey for those people who want some place to start,
why not?  Might need a capo somewhere depending on how high you sing.
Dedicated to my hoobastank.



E--------------------------------------------5-|
B----------------------------------------------|
G-----6-2--2-1---2-6-1-2------6-2--2-1---2-6---|
D--4-4---------4----------4-4----------4-------|
A----------------------------------------------|
E----------------------------------------------|




E-------------------5--2-0--------2-|
B----------------------3--3-----3---|
G----2-6--2-1---2-6----2----2-2-----|
D--44----------4--------------------|
A-----------------------------------|
E-----------------------------------|


This repeats while the second guitar plays the chords.  Have fun!
Bethany Fan  Brian L.

TOP cifras de Bethany Joy Lenz

  1. Stars Go Blue
  2. Halo Intro
  3. Crazy Girls
  4. Don't Walk Away
  5. If You're Missing (Come On Home)
  6. Hotel Can't Afford Ya
  7. Devil Archerist
  8. Elsewhere
  9. Feel This
  10. Songs In My Pocket

Pela Web