Cifras Web
Bethoven

Canción de La Alegría

Bethoven

8 acessos


E|-0-0-1-3-3-1-0---------0-0-------0-0-1-3-3-1-0---------0-------
B|---------------3-1-1-3-----3-3-----------------3-1-1-3---3-1-1-
G|---------------------------------------------------------------
D|---------------------------------------------------------------
A|---------------------------------------------------------------
E|---------------------------------------------------------------


E|----0-----0-1-0-----0-1-0---------|-0-1-3-3-1---------0-------|
B|-3----1-3-------1-3-------3-1-3---|-----------3-1-1-3---3-1-1-|
G|--------------------------------0-|---------------------------|
D|----------------------------------|---------------------------|
A|----------------------------------|---------------------------|
E|----------------------------------|---------------------------|

TOP cifras de Bethoven

  1. Por Elise
  2. 5ª Sinfonia
  3. 9ª Symphony
  4. Canción de La Alegría
  5. Sonate Pathetique
  6. 9ª Sinfonia

Pela Web