Cifras Web
Bikini

Adj Helyet

Bikini

10 acessos

Intro : No bass

Verse1:
                       Adj helyet...
1.|-------------------------------------------------------------|
2.|-------------------------------------------------------------|
3.|--3--------------5-------------------------------------------|    4X
4.|-------4----0------------------------------------------------|

 solo

Verse2:

Verse1:
                       Mint a fe'lelem...
1.|-------------------------------------------------------------|
2.|-------------------------------------------------------------|
3.|--3--------------5-------------------------------------------|    4X
4.|-------4----0------------------------------------------------|

Solo


Verse4:

1.|-------------------------------------------------------------|
2.|-------------------------------------------------------------|
3.|--3--------------5-------------------------------------------|    4X
4.|-------4----0------------------------------------------------|

solo

TOP cifras de Bikini

  1. Adj Helyet Solo
  2. Adj Helyet
  3. Kozeli Helyeken

Pela Web