Cifras Web
Black 47

Funky Ceili

Black 47

11 acessos

Submitted By: Danny Feierman
EMail: *


That last one I submit think was wrong,I got the right one I think,
I don't know the pipe solo right,play it and see how you thinkif you
think its wrong you can tipe out what you think its right but it might
be hard shit some times,good luck dudes.


Intro:

E|---------------------------|
B|---------------------------|
G|---------------------------|
D|2~~----4~~----6~~----3--3--|
A|2~~----4~~----6~~----3--3--|
E|0~~----2~~----4~~----1--1--|


Pipe solo:This here is how the Uilleann pipes,tin whistle,and sax played

E|--454-76-76-65-87-65-43-|
B|33---4--6--6--5--7--5--3|
G|------------------------|
D|------------------------|
A|------------------------|
E|------------------------|


Solo:

E|--------------2-2-2-2-0-2b------------------------------|
B|----------------------------------------1-1-1-1/3-3-3-3-|
G|--------------------------------------------------------|
D|--------------------------------------------------------|
A|--------------------------------------------------------|
E|--------------------------------------------------------|


Verse1:

E|----------------------------|
B|----------------------------|
G|----------------------------|
D|----------------------------|
A|2~~----4~~----6~~----3~~----|
E|0~~----2~~----4~~----1~~----|

"Over the seas and far away..."

Verse2:

E|--------------------------------|
B|--------------------------------|
G|--------------------------------|
D|--------------------------------|
A|2~~----4~~----6~~~~----4~~~~----|
E|0~~----2~~----4~~~~----2~~~~----|

"I love you,a cushle,but how could I be without me,Punky Funky,Ceili."


b: bend
/: slide up
~: ring


P.S. Engoy.

TOP cifras de Black 47

  1. Wonderful Life
  2. Funky Ceili

Pela Web