Cifras Web
Black Country Communion

Black Country

Black Country Communion

7 acessos

Riff:
(8x)

E|-------------------------|-------------------------|
B|-------------------------|-------------------------|
G|-------------------------|-------------------------|
D|-------------------------|-------------------------|
A|-7-7-7-8-7-5-7-7-7-8-7-5-|-7-7-7-8-7-5-----------5-|
E|-------------------------|---------------5---7-----|
(4x)



E|-------------------------|-------------------------|
B|-------------------------|-------------------------|
G|-------------------------|-------------------------|
D|-5-5-5-----5-5-5-5-----5-|-5-5-5-----5-----------5-|
A|-------8-7---------8-7---|-------8-7-----5---7-----|
E|-------------------------|-------------------------|



E|---------|---------|---------|-----------|
B|---------|---------|---------|-----------|
G|---------|---------|---------|-----------|
D|-7--7----|-7--7----|-7--7----|--5--5--7--|
A|-7--7----|-7--7----|-7--7----|--5--5--7--|
E|-5--5----|-5--5----|-5--5----|--3--3--5--|


Outro 3x:
E|----------|
B|----------|
G|----------|
D|-7--7--7--|
A|-7--7--7--|
E|-5--5--5--|

Top cifras de Black Country Communion

  1. Cold
  2. One Last Soul
  3. Black Country

Pela Web