Cifras Web
Blind Willie Johnson

Keep You Lamp Trimmed And Burning

Blind Willie Johnson

10 acessos

 

Played in Open E (E B E G# B E from low to high)

 

/: slide up 

\: slide down 

~: slight vibrato with bottleneck (you should never leave a slide stationary on a note)

 

 INTRO:

 


|----/3--0--/3--0----------------------0-/3-----3\2-0-------------0--------|
|--------------/5--5\--0--/5--5\--0-/5----------/3----0--/3----0-/3--------|
|--------------------------------------------------------------------------|
|-------0--------0-------0---------0--------0---------0--------0-----0-----|
|--------------------------------------------------------------------------|
|------0----------0---------0--------0---------0--------0-------0----------|


 

 


|-/3--3\2--0--------------------/7---7\5-0--/3\-0------------0---/3---/7---|
|---------/5---5\-0--/5--5\-0-/5-/9---------------/5---5\------------------|
|--------------------------------------------------------------------------|
|----0---------0-------0--------0----0--------0--------0------0-----0----0-|
|--------------------------------------------------------------------------|
|--0-------0-----0--------0-----0------0---------0-------0-----0-----0-----|


  


|----/12--7\--/7-0----/7---/5----/12--7\--/7-0----/3---/7----/12--7\--/7-0-|
|-----------0-----------------------------0------------------------------0-|
|------------------------------------------------------------------------0-|
|----0------0---------0------0---0------0--------0-------0-------0-------0-|
|--------------------------------------------------------------------------|
|-0-------0------------0------0-------0-----0---------0------0------0------|


 
 


|---3---/7---7\5-0--3\--0----------
|-------------------------/5-------
|----------------------------------
|-----0--------0--------0-------0--
|----------------------------------
|-0--------0--------0--------0-----


 

 

Keep-a your lamp all trimmed up and burning Keep-a your lamp all trimmed up and burning


|---/3--0--/3--0-------------------0-/3-----3\2-0-----------------0--------|
|-------/5--5\--0--/5--5\---0-/5--------------/3----0--/3----0-/3----------|
|--------------------------------------------------------------------------|
|------0--------0-------0--------0-------0---------0--------0--------0-----|
|--------------------------------------------------------------------------|
|----0--------0----------0------0--------0---------0--------0-------0------|


 

Keep-a your lamp             See what the Lord has done       Well has done 


|-/3--3\2--0--------------------/7---7\5-0--/3\-0------------0---/3---/7---|
|------------/5---5\-0--/5--5\-0-/5-/9------------/5---5\------------------|
|--------------------------------------------------------------------------|
|-----0---------0------0--------0----0-------------0------0-------0------0-|
|--------------------------------------------------------------------------|
|--0--------0----------0--------0-----0------0------0-------0-----0----0---|


 

 get worried         Well has done ....                       Mmmm mmmmm


|----/12--7\--/7-0----/7---/5---/12--7\--/7-0----/3---/7-----/12--7\--/7---|
|--------------------------------------0-----------------------------------|
|--------------------------------------------------------------------------|
|------0-------0--0------0-------0-------0-----0-------0-------0-------0---|
|--------------------------------------------------------------------------|
|-0-------0------0--------0------0-------0------0----0------0------0--------|


 

     Well see what the Lord has done


|---3---/7---7s5-0--3\--0----------|
|-------------------------/5-------|
|----------------------------------|
|-----0--------0--------0-------0--|
|----------------------------------|
|-0--------0--------0--------0-----|


 

Here I stand with my soul and my heart

Here I ... oh

Here I stand with my soul and my heart

See what the Lord has done


Well has .... get worried

Well ........mmmm mmmmm

Well has .... get worried

Well see what the Lord has done

 

Here I stand with my soul and my heart

Here I ... 

Here I stand with my soul and my heart

See what the Lord has done


Mmmm mmmmm.... get worried

Well see what the Lord has done




|--------------------------------------------------------------------------|
|--------------------------------------------------------------------------|
|--------------------------------------------------------------------------|
|-0-/3-0-/3-0----5\---5\------5\---0-/3-0----3\--3\------0--/3-3\2-0-/5----|
|------/5-5\--0-/5-5\-0-/5-5\--0-/3--------/3-3\--0-/3-3\-0-/3-------/5-5\-|
|--------------------------------------------------------------------------|


 
                   Mmmm mmmmm


|-----------------------------------0------/3---/7----------/12--7\--/7--0-|
|--------------------------------------------------------------------------|
|--------------------------------------------------------------------------|
|---/5---/4-----0-/7--7\-5----3\2-0------0----0-------0-------0-------0----|
|-0-/5-5\-0-/5----------------/5-------------------------------------------|
|------0-----0-------0--0---------0------0---------0------0------0---------|

 

dont get worried    Well         get worried        Well see what 


|---/12---/10---/12--7\--/7-0----/3---/7---/12--7\--/7-0----3---/7---7\5-0-|
|--------------------------------------------------------------------------|
|--------------------------------------------------------------------------|
|----0--------0--------0-------0---------0------0------0-------0----0--0---|
|--------------------------------------------------------------------------|
|-0------0------0-------0---------0--------0-----0------0-------0------0---|

 

the Lord has done


|-3\--0------------|
|-------/5---------|
|------------------|
|-----0-------0----|
|------------------|
|-0--------0-------|


  

I have started on my journey

I have started 

I have started on my journey

See what the Lord has done

 

Well has done get worried

Well has done get worried

Well has.....get worried...

 
Well see what the Lord has done 

Outro:

|-----------------------------
|-----------------------/5~~--
|-----------------------------
|-0-/7--7\-5----2s3-0---------
|-----------------------------
|------------0--------0-------


TOP cifras de Blind Willie Johnson

  1. Dark Was The Night Cold Was The Ground
  2. Keep You Lamp Trimmed And Burning

Pela Web