Cifras Web
Blink 182

M&M'S

Blink 182

10 acessos


E|-0-4-0-5-0-7-5-4-2-0--2-0-4-0-5-4-2-0-|
B|--------------------------------------|
G|--------------------------------------| 4x
D|--------------------------------------|
A|--------------------------------------|
E|--------------------------------------|

  
    E   E/F#  E/G#  E/A#  

E|-----|-----|-----|-----|
B|-----|-----|-----|-----|
G|---9-|---9-|---9-|---9-|
D|-----|-----|-6---|-7---|
A|-7---|-9---|-----|-----|
E|-----|-----|-----|-----|
    4x    4x    4x   4x


E                E/F#                 E/G#   E/A#
You and I should get away for a while
E            E/F#                E/G#   E/A#
I just wanna be alone with your smile


E|------------------------------------------|
B|------------------------------------------|
G|-9----9/11--9-11-9-8-9----9/11--9-11-9-8--|
D|-9----9/11--9-11-9-8-9----9/11--9-11-9-8--| 2x
A|-7----7/9---7-9--7-6-7----7/9---7-9--7-6--|
E|------------------------------------------|


Grab some candy and cigarettes and we'll get in my car
We'll blast the stereo and we'll drive to Madagascar
 
Refrão:
         F#       A           E                  B   
Cuz when I'm with you there's nothing I wouldn't do
F#           A           E     B   
I just wanna be yer only one 
F#           A         E                B   
I'm grasping at straws thinking back to what i saw
     F#                 A                 E    B
that night on the floor when we were all alone


E|-0-4-0-5-0-7-5-4-2-0--2-0-4-0-5-4-2-0-|
B|--------------------------------------|
G|--------------------------------------| 4x
D|--------------------------------------|
A|--------------------------------------|
E|--------------------------------------|

  
    E   E/F#  E/G#  E/A#  

E|-----|-----|-----|-----|
B|-----|-----|-----|-----|
G|---9-|---9-|---9-|---9-|
D|-----|-----|-6---|-7---|
A|-7---|-9---|-----|-----|
E|-----|-----|-----|-----|
    4x    4x    4x   4x


E       E/F#                      E/G#   E/A#
My love life was getting so bland
E              E/F#               E/G#              E/A#
There are only so many ways i can make love with my hand
      

E|------------------------------------------|
B|------------------------------------------|
G|-9----9/11--9-11-9-8-9----9/11--9-11-9-8--|
D|-9----9/11--9-11-9-8-9----9/11--9-11-9-8--| 2x
A|-7----7/9---7-9--7-6-7----7/9---7-9--7-6--|
E|------------------------------------------|


Sometimes it makes me want to laugh
Sometimes i wanna take my toaster in the bath
 
Refrão:
         F#       A           E                  B   
Cuz when I'm with you there's nothing I wouldn't do
F#           A           E     B   
I just wanna be yer only one 
F#           A         E                B   
I'm grasping at straws thinking back to what i saw
     F#                 A                 E    B
that night on the floor when we were all alone

Passagem: E - B - C# - A |2x

Who's gonna be the odd man out?
I don't want to be the odd man out
Is this going to be the end
Or are you going to be my new girlfriend?

                _________________8x____________________

E|-0-0-0-0-0...|-0-4-0-5-0-7-5-4-2-0--2-0-4-0-5-4-2-0-|
B|-------------|--------------------------------------|
G|-------------|--------------------------------------|
D|-------------|--------------------------------------|
A|-------------|--------------------------------------|
E|-------------|--------------------------------------|


Final: Em

TOP cifras de Blink 182

  1. I Miss You
  2. Dysentary Gary
  3. Carousel 0
  4. Apple Shampoo
  5. Shut Up
  6. When I Was Young
  7. EMO
  8. Lemmings
  9. The Fallen Interlude
  10. Toast and Bananas

Pela Web