Cifras Web
Bloc Party

Hunting For Witches

Bloc Party

9 acessos

*

Second Edition. I put the right numbers on the wrong strings of my last tab. My bad. 
I added the post-chorus chords he plays.

0:37
Intro and Verses (Russell plays this)
e|------|-----------------------------------------|
B|------|-----------------------------------------|
G|------|----------7-7-6--------------------------|
D|---12/|--4-4-7-4-------7------6-7-------7-9-----|
A|------|-------------------4-4-------5-5---------|
E|------|-----------------------------------------|


e|------------------------------------|
B|------------------------------------|
G|-----------/9-7-6-------------------|
D|---4-4-7-4-------------7-9-----9-11-|
A|-------------------5-5-----7-7------|
E|------------------------------------|


1:14
CHorus (Kele comes in)

e|--------------------------------------|--------------|
B|--------------------------------------|--------------|
G|--11-11----11-11----------------------|--------------|
D|--11-11----11-11----11-11----12-12----|-9*---2*------|
A|--9--9-----9--9-----11-11----12-12----|-9*---2*------|
E|--------------------9--9-----10-10----|-7*---0*------|


Bridge (Not really sure yet for the beginning but the break down part is)
2:30

e|-------------------------------|
B|-------------------------------|
G|--6/-----7/-----9/-----7/------|
D|--6/-----7/-----9/-----7/------|
A|--4/-----5/-----7/-----5/------|
E|-------------------------------|



e|---------------------------------------------------------|
B|---------------------------------------------------------|
G|--6/--66-77-99-7/--66-77-99-9/--66-77-99--77-66----------|
D|--6/-----------7/-----------9/------------------77-66----|
A|--4/-----------5/-----------7/---------------------------|
E|---------------------------------------------------------|


Intro riff again

Beginning of bridge that kind of sounds like synth?


I know theres a few parts I missed so feel free to leave a comment with the missing parts.

TOP cifras de Bloc Party

  1. Vision Of Heaven Intro
  2. Uniform
  3. Srxt
  4. I Still Remember Intro
  5. Song For Clay Disappear Here
  6. Tulips
  7. Helicopter
  8. Once And Future King
  9. Rhododendron
  10. England

Pela Web