Cifras Web
Blood River-2020

Blues Em "e"

Blood River-2020

6 acessos


|-------0----3/5--0------------0-------------------------------------|
|---3/5---0----------0------3----------------------------------------|
|-----------------------2/4------0/1---------------------------------|
|------------------------------------2~~-----------------------------|
|--------------------------------------------------------------------|
|--------------------------------------------------------------------|


E7 E7 A7 A7 2x

E7 E7 B7 A7

E7 B7

|-------0----3/5--0------------0-------------------------------------|
|---3/5---0----------0------3----------------------------------------|
|-----------------------2/4------0/1---------------------------------|
|------------------------------------2~~-----------------------------|
|--------------------------------------------------------------------|
|--------------------------------------------------------------------|

Top cifras de Blood River-2020

  1. Levada Blues
  2. Blues Em "e"

Pela Web