Cifras Web
Bonde Neurose

Um morto muito louco

Bonde Neurose

33 acessos


E-------------------------------------------------
B-------------------------------------------------
G--0--2--4--5--5--2--2--4--0--2--0--2--0--2--4--5-
D-------------------------------------------------
A-------------------------------------------------
E-------------------------------------------------




E-------------------------------------------------
B-------------------------------------------------
G--5--2--2--4--0-----------2--4--5--5--2--2--4--0-
D-------------------------------------------------
A-------------------------------------------------
E-------------------------------------------------



E-------------------------------------------------
B-------------------------------------------------
G--2--0--2--0--2--4--5--5--2--2--4--0-------------
D-------------------------------------------------
A-------------------------------------------------
E-------------------------------------------------


É diferente vem com agente quero ver geral pirar
nessa dança muito louca eu não quero ninguem parado
e jogue seus braços para tras balance seu pescoço
no suwing da batida com um morto muito louco



E-------------------------------------------------
B-------------------------------------------------
G--0--2--4--5--5--2--2--4--0--2--0--2--0--2--4--5-
D-------------------------------------------------
A-------------------------------------------------
E-------------------------------------------------

pamram pamram pam pam pam pam pamram pamram


E-------------------------------------------------
B-------------------------------------------------
G--5--2--2--4--0----------------------------------
D-------------------------------------------------
A-------------------------------------------------
E-------------------------------------------------

pamram pamram pam pam pam pam (yeah)

E-------------------------------------------------
B-------------------------------------------------
G--0--2--4--5--5--2--2--4--0--2--0--2--0--2--4--5-
D-------------------------------------------------
A-------------------------------------------------
E-------------------------------------------------

pamram pamram pam pam pam pam pamram pamram

E-------------------------------------------------
B-------------------------------------------------
G--5--2--2--4--0----------------------------------
D-------------------------------------------------
A-------------------------------------------------
E-------------------------------------------------

pamram pamram pam pam pam pam (yeah)

É diferente vem com agente quero ver geral pirar
nessa dança muito louca eu não quero ninguem parado
e jogue seus braços para tras balance seu pescoço
no suwing da batida com um morto muito louco


E-------------------------------------------------
B-------------------------------------------------
G--0--2--4--5--5--2--2--4--0--2--0--2--0--2--4--5-
D-------------------------------------------------
A-------------------------------------------------
E-------------------------------------------------

pamram pamram pam pam pam pam pamram pamram


E-------------------------------------------------
B-------------------------------------------------
G--5--2--2--4--0----------------------------------
D-------------------------------------------------
A-------------------------------------------------
E-------------------------------------------------

pamram pamram pam pam pam pam (yeah)

E-------------------------------------------------
B-------------------------------------------------
G--0--2--4--5--5--2--2--4--0--2--0--2--0--2--4--5-
D-------------------------------------------------
A-------------------------------------------------
E-------------------------------------------------

pamram pamram pam pam pam pam pamram pamram

E-------------------------------------------------
B-------------------------------------------------
G--5--2--2--4--0----------------------------------
D-------------------------------------------------
A-------------------------------------------------
E-------------------------------------------------

pamram pamram pam pam pam pam (yeah)

É diferente vem com agente quero ver geral pirar
nessa dança muito louca eu não quero ninguem parado
e jogue seus braços para tras balance seu pescoço
no suwing da batida com um morto muito louco


E-------------------------------------------------
B-------------------------------------------------
G--0--2--4--5--5--2--2--4--0--2--0--2--0--2--4--5-
D-------------------------------------------------
A-------------------------------------------------
E-------------------------------------------------

pamram pamram pam pam pam pam pamram pamram


E-------------------------------------------------
B-------------------------------------------------
G--5--2--2--4--0----------------------------------
D-------------------------------------------------
A-------------------------------------------------
E-------------------------------------------------

pamram pamram pam pam pam pam (yeah)


E-------------------------------------------------
B-------------------------------------------------
G--0--2--4--5--5--2--2--4--0--2--0--2--0--2--4--5-
D-------------------------------------------------
A-------------------------------------------------
E-------------------------------------------------

pamram pamram pam pam pam pam pamram pamram


E-------------------------------------------------
B-------------------------------------------------
G--5--2--2--4--0----------------------------------
D-------------------------------------------------
A-------------------------------------------------
E-------------------------------------------------

pamram pamram pam pam pam pam (yeah)


E-------------------------------------------------
B-------------------------------------------------
G--0--2--4--5--5--2--2--4--0--2--0--2--0--2--4--5-
D-------------------------------------------------
A-------------------------------------------------
E-------------------------------------------------

pamram pamram pam pam pam pam pamram pamram


E-------------------------------------------------
B-------------------------------------------------
G--5--2--2--4--0----------------------------------
D-------------------------------------------------
A-------------------------------------------------
E-------------------------------------------------

pamram pamram pam pam pam pam (yeah)


E-------------------------------------------------
B-------------------------------------------------
G--0--2--4--5--5--2--2--4--0--2--0--2--0--2--4--5-
D-------------------------------------------------
A-------------------------------------------------
E-------------------------------------------------

pamram pamram pam pam pam pam pamram pamram


E-------------------------------------------------
B-------------------------------------------------
G--5--2--2--4--0----------------------------------
D-------------------------------------------------
A-------------------------------------------------
E-------------------------------------------------

pamram pamram pam pam pam pam (yeah)

Top cifras de Bonde Neurose

  1. Um morto muito louco

Pela Web