Cifras Web
Boney Nem

We Are The World We Are The Children

Boney Nem

10 acessos


Transcribed by: Radtchenko Konstantin (*)


Tuning D


Intro
Gtr 1

||------------------------------------------------------------------------------------------|
||------------------------------------------------------------------------------------------|
||------------------------------------------------------------------------------------------|
||---5-(5)----------------5-(5)-----------------------------5-(5)---------------5\--2-(2)---|
||---3-(3)--3-(3)--5-(5)--3-(3)---------------3-(3)--5-(5)--3-(3)---------------3\--0-(0)---|
||----------1-(1)--3-(3)----------------------1-(1)--3-(3)----------------------------------|

| |
| |
Gtr 2 |
||------------------------------------------------------------------------------------------|
||------------------------------------------------------------------------------------------|
||------------------------------------------------------------------------------------------|
||---5-(5)----------------5-(5)-------5-(5)-----------------5-(5)-------5-(5)---5\--2-(2)---|
||---3-(3)--3-(3)--5-(5)--3-(3)-3-3-3-3-(3)---3-(3)--5-(5)--3-(3)-3-3-3-3-(3)---3\--0-(0)---|

||----------1-(1)--3-(3)----------------------1-(1)--3-(3)----------------------------------|

p.m. . . . . . .


Gtr 1 and Gtr 2

|---------------------------------------------------------------------------------||
|---------------------------------------------------------------------------------||
|---------------------------------------------------------------------------------||
|---------------------------------------------------------5-----5-----4/5-5-------||
|--2-(2)---2-----2-(2)--3-----3-----3----5-----5-----5----3-3-3-3-3-3-2/3-3-------||
|--0-(0)---0-0-0-0-(0)--1-1-1-1-1-1-1-1--3-3-3-3-3-3-3-3--------------------------||

p.m. . . . . . . . . . . . . . . . .


Verse

Gtr 1 and Gtr 2

||---------------------------------------------------------------------------------|
||---------------------------------------------------------------------------------|
||---------------------------------------------------------------------------------|
||--------------------------------------5-----5----------5-----5-------------------|
||----3-----3-----3----5-----5-----5----3-3-3-3-3-3-3-3--3-3-3-3-3-3-3-3-----------|
||----1-1-1-1-1-1-1-1--3-3-3-3-3-3-3-3---------------------------------------------|

p.m. . . . . . . . . . . . . . . . . . . . . . .


Gtr 1 and Gtr 2

|---------------------------------------------------------------------------------||
|---------------------------------------------------------------------------------||
|---------------------------------------------------------------------------------||
|--------------------------------------5-----5----------5-------------------------||
|----3-----3-----3----5-----5-----5----3-3-3-3-3-3-3-3--3-3-3-000500030-----------||
|----1-1-1-1-1-1-1-1--3-3-3-3-3-3-3-3---------------------------------------------||

p.m. . . . . . . . . . . . . . . . . . . .........


Chorus

Gtr 1 and Gtr 2

||------------------------------------------------------|
||------------------------------------------------------|
||------------------------------------------------------|
||------------------------------------------------------|
||-----7-(7)--7-----7-7-(7)-----5-(5)--5-----5-5--------|
||-----5-(5)--5-5-5-5-5-(5)-----3-(3)--3-3-3-3-3--------|

p.m. . . . .


Gtr 1 and Gtr 2

|----------------------------------------------------------------||
|----------------------------------------------------------------||
|----------------------------------------------------------------||
|----------------------------------------5-----5-----4/5-5-------||
|------3-----3-----3----5-----5-----5----3-3-3-3-3-3-2/3-3-------||
|------1-1-1-1-1-1-1-1--3-3-3-3-3-3-3-3--------------------------||

p.m. . . . . . . . . . . . . . .

Top cifras de Boney Nem

  1. Felicita
  2. Kolorowe Jarmarki
  3. I Just Called To Say I Love You
  4. Its My Life
  5. We Are The World We Are The Children
  6. Youre My Heart Youre My Soul

Pela Web