Cifras Web
Borat

In My Country There Is Problem

Borat

20 acessos

Track 1
E E S S E E E S S E E E S S E E E S S E

E||------------------------------|------------------------------|
B||-----3-------3-----3-------3--|-----3-------3-----3-------3--|
G||------------------------------|------------------------------|
D||------------------------------|------------------------------|
A||--------0h-2----------0h-2----|--------0h-2----------0h-2----|
E||--3-------------3-------------|--3-------------3-------------|



In my country there is
E E S S E E E S S E E E S S E E E S S E

------------------------------|--------------------------------------|
-----3-------3-----3-------3--|-----3-------3----------3----------3--|
------------------------------|--------------------------------------|
------------------------------|--------------------------------------|
--------0h-2----------0h-2----|--------0h-2---------------0h----2----|
--3-------------3-------------|--3-------------3---------------------|



problem
E E S S E E E S S E

-----------------------------------|
----------3-------3-----3-------3--|
-----------------------------------|
-----------------------------------|
-------------0h-2----------0h-2----|
--3------------------3-------------|



problem And my problem is trans port
E E S S E E E S S E E E E E E E E E

-----------------------------------------------|----------------------------|
----------3-------3------3------------3--------|-------1-----1-----1-----1--|
-----------------------------------------------|----------------------------|
-----------------------------------------------|----------2-----------2-----|
-------------0h-2----------------0h-2----------|--3-------------3-----------|
--3-------------------3------------------------|----------------------------|



it take very very long
E E E E E E E E E E E E E E E E

------------------------------------------|----------------------------|
-----1-----1---------------------1-----1--|-------3-----3-----3-----3--|
------------------------------------------|----------2-----------2-----|
--------2---------------------------2-----|--0-------------0-----------|
--3---------------------------3-----------|----------------------------|
------------------------------------------|----------------------------|



because Kazahkstan is big
E E E E E E E E E E S S E E E S S E

---------------------------------------------|-------------------------------|
-----3------------------------3-----3-----3--|------3-------3-----3-------3--|
--------2------------------------------2-----|-------------------------------|
--0------------------------------0-----------|-------------------------------|
---------------------------------------------|---------0h-2----------0h-2----|
---------------------------------------------|--3--------------3-------------|



Throw transport down the
E E S S E E E S S E

-----------------------------------------------------|
-----3------------------------------3-----3-------3--|
-----------------------------------------------------|
-----------------------------------------------------|
--------0h-2---------------------------------0h-2----|
--3------------------------------------3-------------|



well
E E S S E E E S S E

--------------------------------|
-------3-------3-----3-------3--|
--------------------------------|
--------------------------------|
----------0h-2----------0h-2----|
--3---------------3-------------|



SO my country can be Free
E E S S E E E S S E E E E E E E E E

--------------------------------------------------|----------------------------|
-----3---------------------------3-----3-------3--|-------1-----1-----1-----1--|
--------------------------------------------------|----------------------------|
--------------------------------------------------|----------2-----------2-----|
--------0h-2------------------------------0h-2----|--3-------------3-----------|
--3---------------------------------3-------------|----------------------------|



We must make travel easy
E E E E E E E E E E E E E E E E

-------------------------------------------|----------------------------|
-----1----------------------1-----1-----1--|-------3-----3-----3-----3--|
-------------------------------------------|----------2-----------2-----|
--------2----------------------------2-----|--0-------------0-----------|
--3----------------------------3-----------|----------------------------|
-------------------------------------------|----------------------------|



then we have a big party
E E E E E E E E E E S S E E E S S E

------------------------------------------|---------------------------------|
-----3---------------------3-----3-----3--|--------3-------3-----3-------3--|
--------2---------------------------2-----|---------------------------------|
--0---------------------------0-----------|---------------------------------|
------------------------------------------|-----------0h-2----------0h-2----|
------------------------------------------|--3----------------3-------------|



In my country there is Problem
Q Q Q Q E E S S E E E S S E

----------------------------------------|-----------------------------------|
----------------------------------------|----------3-------3-----3-------3--|
----------------------------------------|-----------------------------------|
----------------------------------------|-----------------------------------|
----------------------------------------|-------------0h-2----------0h-2----|
--3-------------------------------------|--3------------------3-------------|



And the problem is the Jew
E E S S E E E S S E E E E E E E E E

---------------------------------------------------|---------------------------|
-----3----------------------------3-----3-------3--|------1-----1-----1-----1--|
---------------------------------------------------|---------------------------|
---------------------------------------------------|---------2-----------2-----|
--------0h-2-------------------------------0h-2----|--3------------3-----------|
--3----------------------------------3-------------|---------------------------|



They take everybody Money
E E E E E E E E E E E E E E E E

-------------------------------------------|-----------------------------|
-----1----------------------1-----1-----1--|--------3-----3-----3-----3--|
-------------------------------------------|-----------2-----------2-----|
--------2----------------------------2-----|--0--------------0-----------|
--3----------------------------3-----------|-----------------------------|
-------------------------------------------|-----------------------------|



And they never give it Back
E E E E E E E E E E S S E E E S S E

----------------------------------------------|--------------------------------|
-----3-------------------------3-----3-----3--|-------3-------3-----3-------3--|
--------2-------------------------------2-----|--------------------------------|
--0-------------------------------0-----------|--------------------------------|
----------------------------------------------|----------0h-2----------0h-2----|
----------------------------------------------|--3---------------3-------------|



Throw the Jew down the Well
Q Q Q Q E E S S E E E S S E

-----------------------------------------|--------------------------------|
-----------------------------------------|-------3-------3-----3-------3--|
-----------------------------------------|--------------------------------|
-----------------------------------------|--------------------------------|
-----------------------------------------|----------0h-2----------0h-2----|
--3--------------------------------------|--3---------------3-------------|



So my country can be Free
E E S S E E E S S E E E E E E E E E

-------------------------------------------------|----------------------------|
-----3--------------------------3-----3-------3--|-------1-----1-----1-----1--|
-------------------------------------------------|----------------------------|
-------------------------------------------------|----------2-----------2-----|
--------0h--------------------2----------0h-2----|--3-------------3-----------|
--3--------------------------------3-------------|----------------------------|



You must grab him by his horns
E E E E E E E E E E E E E E E E

------------------------------------------------|-----------------------------|
-----1---------------------------1-----1-----1--|--------3-----3-----3-----3--|
------------------------------------------------|-----------2-----------2-----|
--------2---------------------------------2-----|--0--------------0-----------|
--3---------------------------------3-----------|-----------------------------|
------------------------------------------------|-----------------------------|



then we have a big party
E E E E E E E E E E S S E E E S S E

------------------------------------------|---------------------------------|
-----3---------------------3-----3-----3--|--------3-------3-----3-------3--|
--------2---------------------------2-----|---------------------------------|
--0---------------------------0-----------|---------------------------------|
------------------------------------------|-----------0h-2----------0h-2----|
------------------------------------------|--3----------------3-------------|



If you see the jew coming
Q Q Q Q E E S S E E E S S E

------------------------------------|----------------------------------|
------------------------------------|---------3-------3-----3-------3--|
------------------------------------|----------------------------------|
------------------------------------|----------------------------------|
------------------------------------|------------0h-2----------0h-2----|
--3---------------------------------|--3-----------------3-------------|



You must be careful of his
E E S S E E E S S E

------------------------------------------------------|
-----3-------------------------------3-----3-------3--|
------------------------------------------------------|
------------------------------------------------------|
--------------------------------0h-2----------0h-2----|
--3-------------------------------------3-------------|



teeth You must grab him by his
E E E E E E E E E E E E E E E E

-----------------------------|------------------------------------------------|
--------1-----1-----1-----1--|-----1---------------------------1-----1-----1--|
-----------------------------|------------------------------------------------|
-----------2-----------2-----|--------2---------------------------------2-----|
--3--------------3-----------|--3---------------------------------3-----------|
-----------------------------|------------------------------------------------|



money And I tell you what to
E E E E E E E E E E E E E E E E

-----------------------------|-----------------------------------------------|
--------3-----3-----3-----3--|-----3--------------------------3-----3-----3--|
-----------2-----------2-----|--------2--------------------------------2-----|
--0--------------0-----------|--0--------------------------------0-----------|
-----------------------------|-----------------------------------------------|
-----------------------------|-----------------------------------------------|



do Throw the Jew down the
E E S S E E E S S E Q Q Q Q

------------------------------|----------------------------------------|
-----3-------3-----3-------3--|----------------------------------------|
------------------------------|----------------------------------------|
------------------------------|----------------------------------------|
--------0h-2----------0h-2----|----------------------------------------|
--3-------------3-------------|--3-------------------------------------|



Well
E E S S E E E S S E

--------------------------------|
-------3-------3-----3-------3--|
--------------------------------|
--------------------------------|
----------0h-2----------0h-2----|
--3---------------3-------------|



So my country can be free
E E S S E E E S S E E E E E E E E E

-------------------------------------------------|----------------------------|
-----3--------------------------3-----3-------3--|-------1-----1-----1-----1--|
-------------------------------------------------|----------------------------|
-------------------------------------------------|----------2-----------2-----|
--------0h-2-----------------------------0h-2----|--3-------------3-----------|
--3--------------------------------3-------------|----------------------------|



You must grab him by his hrons
E E E E E E E E E E E E E E E E

------------------------------------------------|-----------------------------|
---------------------------1-----1-----1-----1--|--------3-----3-----3-----3--|
------------------------------------------------|-----------2-----------2-----|
------------------------------2-----------2-----|--0--------------0-----------|
--3---------------------------------3-----------|-----------------------------|
------------------------------------------------|-----------------------------|



then we have a big party
E E E E E E E E E E S S E E E S S E

-------------------------------------------|---------------------------------|
-----3----------------------3-----3-----3--|--------3-------3-----3-------3--|
--------2----------------------------2-----|---------------------------------|
--0----------------------------0-----------|---------------------------------|
-------------------------------------------|-----------0h-2----------0h-2----|
-------------------------------------------|--3----------------3-------------|



Throw the Jew down the Well
Q Q Q Q E E S S E E E S S E

----------------------------------------|--------------------------------|
----------------------------------------|-------3-------3-----3-------3--|
----------------------------------------|--------------------------------|
----------------------------------------|--------------------------------|
----------------------------------------|----------0h-2----------0h-2----|
--3-------------------------------------|--3---------------3-------------|



So my cuntry can be free
E E S S E E E S S E E E E E E E E E

-------------------------------------------------|----------------------------|
-----3--------------------------3-----3-------3--|-------1-----1-----1-----1--|
-------------------------------------------------|----------------------------|
-------------------------------------------------|----------2-----------2-----|
--------0h-2-----------------------------0h-2----|--3-------------3-----------|
--3--------------------------------3-------------|----------------------------|



You must grab him by his horns
E E E E E E E E E E E E E E E E

-------------------------------------------------|-----------------------------|
-----1----------------------------1-----1-----1--|--------3-----3-----3-----3--|
-------------------------------------------------|-----------2-----------2-----|
--------2----------------------------------2-----|--0--------------0-----------|
--3----------------------------------3-----------|-----------------------------|
-------------------------------------------------|-----------------------------|



Then we have a big Party
E E E E E E E E E E S S E E E S S E

------------------------------------------|---------------------------------|
-----3---------------------3-----3-----3--|--------3-------3-----3-------3--|
--------2---------------------------2-----|---------------------------------|
--0---------------------------0-----------|---------------------------------|
------------------------------------------|-----------0h-2----------0h-2----|
------------------------------------------|--3----------------3-------------|



Thank You!
^
W E E H Q
--3----------------|--3-------------------|-------||
--3----------------|--3-------------------|-------||
--0----------------|--0-------------------|-------||
--0----------------|--0-------------------|-------||
--2----------------|--2-------------------|-------||
--3----------------|--3-------------------|-------||

Top cifras de Borat

  1. In My Country There Is Problem
  2. Throw The Jew Down The Well
  3. Borat Theme
  4. Borats Guide To America

Pela Web