Cifras Web
Bosshog

Winn Coma

Bosshog

12 acessos


#

Date: Tue, 25 Jun 1996 22:56:40 -0500
From: Kim and Carla Keafer


Transcribed by Josh Keafer
June, 6 1996

intro (repeat 7x)


E:----------------------------------------|
B:----------------------------------------|
G:----------------------------------------|
D:-----------7-----------------7----------|
A:--9--9--9--5---0-7--8--9--9--5----------|
E:--7--7--7------0-5--6--7--7-------------|


1st chorus (repeat )


E:---------------------------------------------------------------------------------------|
B:---------------------------------------------------------------------------------------|
G:---------------------------------------------------------------------------------------|
D:-----------------------------------------------------------------7-----------------7---|
A:--9--9--9--9--9--9--9--9--7--7--7--7--7--7--7--7--0--7--8--9--9--5--0--7--8--9--9--5---|
E:--7--7--7--7--7--7--7--7--5--5--5--5--5--5--5--5--0--5--6--7--7-----0--5--6--7--7------|


2nd chorus (repeat)


E:---------------------------------------------------------------------------------------|
B:---------------------------------------------------------------------------------------|
G:---------------------------------------------------------------------------------------|
D:--9--9--9--9--9--9--9--9---7--7--7--7--7--7--7--7----------------7-----------------7---|
A:--7--7--7--7--7--7--7--7--5--5--5--5--5--5--5--5--0--7--8--9--9--5--0--7--8--9--9--5---|
E:--------------------------------------------------0--5--6--7--7-----0--5--6--7--7------|


That's basically it, you can listen to the song and figure out the rhythm, but there is a part
in the song when you use this >


E:------------------------------------------|
B:------------------------------------------|
G:------------------------------------------|
D:----------------9--9--9--9--9--9--9-------|
A:--5--5--5--5----7--7--7--7--7--7--7-------|
E:--3--3--3--3----0--0--0--0--0--0--0-------|


You can find that on your own

enjoy,
--josh--

if you get this and it looks screwed up enlarge your pageso it will widen if that does'nt work tell me
i'll fixit then send it back o.*


--
Kim and Carla Keafer
and Josh "Mr. Grand Slam", Whitney the punkin-head, and Megan the monkey

Top cifras de Bosshog

  1. Winn Coma
  2. I Dig You
  3. Bee Hive

Pela Web