Cifras Web
Bp. Robson Rodovalho e Fernandinho

Louvai Ao Senhor

Bp. Robson Rodovalho e Fernandinho

10 acessos

Intro:

      F#m  D  A  E    F#m      D    A   E
E|-------------------------------------||
B|----------------12-12\10-10~~~~~~~~~-||
G|-14~~~~~-----13----------------------||
D|-------------------------------------||
A|-------------------------------------||
E|-------------------------------------||



      F#m   D      A           E         F#m        D     A            E         D
E|--------------------------------------------------------------------------------||
B|-------17-----------------17--15-14-12~--------17-----------------17--15--------||
G|-13-14----13~-14~---13-14---------------13-14----13~-14~---13-14---------13-14~-||
D|--------------------------------------------------------------------------------||
A|--------------------------------------------------------------------------------||
E|--------------------------------------------------------------------------------||


A                 D             A            D
Louvai ao Senhor, povos tribos e nações
A          D            F#m              E
Por amor e sua bondade, vem de geração em geração

F#m                D            A                E
E todo aquele que n'Ele confiar tem vitória certa
F#m                D          A    E
Muitos serão seus dias de alegria

Refrão:
F#m            D          A               E
Rendei graças ao Senhor, digno de glória honra e louvor  } 3X
F#m            D          A               E                   D
Rendei graças ao Senhor, digno de glória honra e louvor ao o meu Jesus
Solo:

      F#m   D      A           E         F#m        D     A           E
E|--------------------------------------------------------------------------------||
B|-------17-----------------17--15-14-12~--------17-------------------------------||
G|-13-14----13~-14~---13-14---------------13-14----13~-14~---13-14----------------||
D|-----------------------------------------------------------------14~~-----------||
A|--------------------------------------------------------------------------------||
E|--------------------------------------------------------------------------------||


      F#m   D      A           E         F#m        D     A            E         D
E|--------------------------------------------------------------------------------||
B|-------17-----------------17--15-14-12~--------17-----------------17--15--------||
G|-13-14----13~-14~---13-14---------------13-14----13~-14~---13-14---------13-14~-||
D|--------------------------------------------------------------------------------||
A|--------------------------------------------------------------------------------||
E|--------------------------------------------------------------------------------||


(Solo)

("Louvai ao Senhor...")

(Repete Tudo 2x)

TOP cifras de Bp. Robson Rodovalho e Fernandinho

  1. Louvai Ao Senhor

Pela Web