Cifras Web
Bread

Baby i'm a want you

Bread

29 acessos

Intro:

       Cm      C#   Cm               C#
E|--------------------------6---6/8-----|
B|----8~-8h9--------8~-8-9----------6-~-|
G|------------10~-----------------------|
D|--------------------------------------|
A|--------------------------------------|
E|--------------------------------------|

Ab
Baby, I'm-a want you 
Bbm
Baby, I'm-a need you
Cm                                C#
You the only one I care enough to hurt about
E|------------------------------------------|
B|------------------------------------------|
G|---------1--------------------------------|
D|---1h3------------1-----------------------|
A|-------------1h3-------3--1---------------|
E|---------------------------------4--------|
Bbm
Maybe I'm-a crazy 
C#
But I just can't live without...
   Ab                                           
Your lovin' and affection              
E|-----|
B|-----|
G|-----|
D|-----|
A|-----|
E|---4-|
Bbm
Givin' me direction
E|-----|
B|-----|
G|-----|
D|-----|
A|-----|
E|-4--4|
Cm                                         C#
Like a guiding light to help me through a darkest hour 
E|-----------------------------|
B|--------------2--------4/6---|
G|-----------1-----------------|
D|-------1---------------------|
A|-----------------------------|
E|--4--------------------------|
Bbm
Lately I'm a-prayin'
           C#                     Ab      
That you'll always be a-stayin' beside me 

       Ab       Bb       B
E|------------------------|
B|------------------------|
G|------------------------|
D|------------------------|
A|--------1----2----------|
E|---4--------------------|

Cm                                   C#
Used to be my life was just emotions passing by

E|---------------------------|
B|---------------------------|
G|---------------------------|
D|---------------------------|
A|-------1-4-----------------|
E|--4(4)---------------------|


Cm                                       C# 
Feeling all the while and never really knowing why... 

Solo

E|------------------------------------------------------|
B|------------------------------------------------------|
G|------------------------1~---3-3--1-3/5\3--1-----(1~)-|
D|--1---1----1-----1h3--------------------------(3)-----|
A|------------------------------------------------------|
E|------------------------------------------------------|



E|-----------------------6--4---------------------------|
B|-------4----6~--4------------6--4---------------------|
G|--3/5---------------5--------------5\3---1-3/5\3--1~--|
D|------------------------------------------------------|
A|------------------------------------------------------|
E|------------------------------------------------------|



E|------------------------------------------------------|
B|------------------------------------------------------|
G|----------------1-------------------------------------|
D|---3--1---3---------------1---------------------------|
A|--------------------1h3-------3--1--0-----------------|
E|--------------------------------------------4~--------|

Bbm
Lately I'm a-prayin' 
      C#                          Ab 
That you'll always be a-stayin' beside me. 

       Ab       Bb       B
E|------------------------|
B|------------------------|
G|------------------------|
D|------------------------|
A|--------1----2----------|
E|---4--------------------|

Cm                                   C#
Used to be my life was just emotions passing by

E|---------------|
B|---------------|
G|---------------|
D|---------------|
A|-------1-4-----|
E|--4(4)---------|

Cm                                                 
Then you came along and made me laugh 
      C#
And made me cry... 
      Cm   C# Bbm 
You taught me why... 
Ab                       Bbm 
Baby, I'm-a want you     Baby, I'm-a need you

E|-------------------------|---------------------------------|
B|-------------------------|---------------------------4/6\4-|
G|----------------------1~-|---3-3--1-3/5\3--1---3/5---------|
D|--1---1----1-----1h3-----|---------------------------------|
A|-------------------------|---------------------------------|
E|-------------------------|---------------------------------|
  Cm                C#
Oh, it took so long to find you, baby

E|-6/7^----6h8-6---4h6--4-------------|
B|------------------------------------|
G|------------------------------------|
D|------------------------------------|
A|------------------------------------|
E|------------------------------------|

Ab                   Bbm
 Baby, I'm-a want you Baby, I'm-a need you
E|---------------------------------------------------11--13---11--(11h13)--|
B|-------------9~--11--11--9---11/13\11--9-11~-11/13-----------------------|
G|---8--8-8h10-------------------------------------------------------------|
D|-------------------------------------------------------------------------|
A|-------------------------------------------------------------------------|
E|-------------------------------------------------------------------------|


E|11h13--13--16----18/19-19\18--16---18------16-------19\18--16---------------------|
B|----------------------------------------------------------------16h18-------------|
G|-----------------------------------------------------------------------15h17>>>>>>|
D|---------------------------------------------------------------------------------------|
A|---------------------------------------------------------------------------------------|
E|---------------------------------------------------------------------------------------|

TOP cifras de Bread

  1. Aubrey
  2. Sweet Surrender
  3. Baby i'm a want you
  4. Clouds Suite
  5. Farther Along
  6. If
  7. Sweet Al George
  8. Guitar Man
  9. Aubrey Intro
  10. Everything I Own

Pela Web