Cifras Web
Brian Head Welch

L.o.v.e

Brian Head Welch

9 acessos

(A E A D F# B)

(intro)

B|-----17----------------------------15-----17-------------------------------|
F|----------17-14-----17-14----14----------------17-14-----17-14----15----18-|
D|--14---14--------14-------14----14-----14---14--------14-------14----15----|
A|---------------------------------------------------------------------------|
E|---------------------------------------------------------------------------|
A|---------------------------------------------------------------------------|



B|-----17----------------------------15-----17-------------------------------|
F|----------17-14-----17-14----14----------------17-14-----17-14-------15-18-|
D|--14---14--------14-------14----14-----14---14--------14-------14-15-------|
A|---------------------------------------------------------------------------|
E|---------------------------------------------------------------------------|
A|---------------------------------------------------------------------------|


(intro)

B|---------------------------------------------------------------------------|
F|---------------------------------------------------------------------------|
D|---------------------------------------------------------------------------|
A|--10--\-9-----------------2---2----------9--\-7-----------------2---2------|
E|---8--\-7---0---5p0---3---0---0----------7--\-5---0---5p0---3---0---0------|
A|---------------------------------------------------------------------------|



B|---------------------------------------------------------------------------|
F|---------------------------------------------------------------------------|
D|---------------------------------------------------------------------------|
A|--10--\-9-----------------2---2----------9--\-7----------------2----10-----|
E|---8--\-7---0---5p0---3---0---0----------7--\-5---0---5p0---3--0-----8-----|
A|---------------------------------------------------------------------------|


(verso 1)

B|---------------------------------------------------------------------------|
F|---------------------------------------------------------------------------|
D|---------------------------------------------------------------------------|
A|--10--\-9-----------------2---2----------9--\-7-----------------2---2------|
E|---8--\-7---0---5p0---3---0---0----------7--\-5---0---5p0---3---0---0------|
A|---------------------------------------------------------------------------|



B|---------------------------------------------------------------------------|
F|--17-------------------------------------18--------------------------------|
D|----------------------------------14------------------------------------14-|
A|---------------------------------------------------------------------------|
E|---------------------------------------------------------------------------|
A|---------------------------------------------------------------------------|



B|---------------------------------------------------------------------------|
F|---------------------------------------------------------------------------|
D|---------------------------------------------------------------------------|
A|--10--\-9-----------------2---2----------9--\-7----------------2----10-----|
E|---8--\-7---0---5p0---3---0---0----------7--\-5---0---5p0---3--0-----8-----|
A|---------------------------------------------------------------------------|



B|--------------------------------------------------------------------15-----|
F|--15-------------------------------------18---------------18---17----------|
D|----------------------------------14---------------14----------------------|
A|---------------------------------------------------------------------------|
E|---------------------------------------------------------------------------|
A|---------------------------------------------------------------------------|



B|---------------------------------------------------------------------------|
F|---------------------------------------------------------------------------|
D|---------------------------------------------------------------------------|
A|--10--\-9-----------------2---2----------9--\-7-----------------2---2------|
E|---8--\-7---0---5p0---3---0---0----------7--\-5---0---5p0---3---0---0------|
A|---------------------------------------------------------------------------|



B|---------------------------------------------------------------------------|
F|--17----------------------14-------------15--------------------------------|
D|----------------------------------14------------------------------------14-|
A|---------------------------------------------------------------------------|
E|---------------------------------------------------------------------------|
A|---------------------------------------------------------------------------|



B|---------------------------------------------------------------------------|
F|---------------------------------------------------------------------------|
D|---------------------------------------------------------------------------|
A|--10--\-9-----------------2---2----------9--\-7----------------2----10-----|
E|---8--\-7---0---5p0---3---0---0----------7--\-5---0---5p0---3--0-----8-----|
A|---------------------------------------------------------------------------|



B|---------------------------------------------------------------------------|
F|--13----------------------15--------17---15--------------------18---13-----|
D|-----------------------14--------14-------------------------14-------------|
A|---------------------------------------------------------------------------|
E|---------------------------------------------------------------------------|
A|---------------------------------------------------------------------------|


(pré-refrão)

B|---------------------------------------------------------------------------|
F|--3------------------------------------------------------------------------|
D|--2-----------------------------------5------------------------------------|
A|--0-----------------3-----------------5-----------------5------------------|
E|--0-----------------3-----------------3-----------------5------------------|
A|--0-----------------3-----------------------------------5------------------|



B|---------------------------------------------------------------------------|
F|--15-------17-------13-------12-------13-----15-----13--12-----13-----15---|
D|---x--------x--------x--------x--------x------x------x---x------x------x---|
A|--12-------14-------10--------9-------10-----12-----10---9-----10-----12---|
E|---------------------------------------------------------------------------|
A|---------------------------------------------------------------------------|


(refrão)

B|---------------------------------------------------------------------------|
F|--3------------------------------------------------------------------------|
D|--2--------2--------------------------5------5-----------------------------|
A|--0--------0--------3--------3--------5------5----------5------5-----------|
E|--0--------0--------3--------3--------3------3----------5------5-----------|
A|--0--------0--------3--------3--------------------------5------5-----------|



B|---------------------------------------------------------------------------|
F|--15-------17-------13-------12-------13-----15-----13--12-----13-----15---|
D|---x--------x--------x--------x--------x------x------x---x------x------x---|
A|--12-------14-------10--------9-------10-----12-----10---9-----10-----12---|
E|---------------------------------------------------------------------------|
A|---------------------------------------------------------------------------|


Post Chorus: Guitars 1 & 2 (Distorted)

B|---------------------------------------------------------------------------|
F|---------------------------------------------------------------------------|
D|---------------------------------------------------------------------------|
A|--10--\-9-----------------2---2----------9--\-7-----------------2---2------|
E|---8--\-7---0---5p0---3---0---0----------7--\-5---0---5p0---3---0---0------|
A|---------------------------------------------------------------------------|



B|---------------------------------------------------------------------------|
F|---------------------------------------------------------------------------|
D|---------------------------------------------------------------------------|
A|--10--\-9-----------------2---2----------9--\-7----------------2----10-----|
E|---8--\-7---0---5p0---3---0---0----------7--\-5---0---5p0---3--0-----8-----|
A|---------------------------------------------------------------------------|


(verso)

B|---------------------------------------------------------------------------|
F|---------------------------------------------------------------------------|
D|---------------------------------------------------------------------------|
A|--10--\-9-----------------2---2----------9--\-7-----------------2---2------|
E|---8--\-7---0---5p0---3---0---0----------7--\-5---0---5p0---3---0---0------|
A|---------------------------------------------------------------------------|



B|---------------------------------------------------------------------------|
F|--17-------------------------------------18--------------------------------|
D|----------------------------------14------------------------------------14-|
A|---------------------------------------------------------------------------|
E|---------------------------------------------------------------------------|
A|---------------------------------------------------------------------------|



B|---------------------------------------------------------------------------|
F|---------------------------------------------------------------------------|
D|---------------------------------------------------------------------------|
A|--10--\-9-----------------2---2----------9--\-7----------------2----10-----|
E|---8--\-7---0---5p0---3---0---0----------7--\-5---0---5p0---3--0-----8-----|
A|---------------------------------------------------------------------------|



B|--------------------------------------------------------------------15-----|
F|--15-------------------------------------18---------------18---17----------|
D|----------------------------------14---------------14----------------------|
A|---------------------------------------------------------------------------|
E|---------------------------------------------------------------------------|
A|---------------------------------------------------------------------------|



B|---------------------------------------------------------------------------|
F|---------------------------------------------------------------------------|
D|---------------------------------------------------------------------------|
A|--10--\-9-----------------2---2----------9--\-7-----------------2---2------|
E|---8--\-7---0---5p0---3---0---0----------7--\-5---0---5p0---3---0---0------|
A|---------------------------------------------------------------------------|



B|---------------------------------------------------------------------------|
F|--17----------------------14-------------15--------------------------------|
D|----------------------------------14------------------------------------14-|
A|---------------------------------------------------------------------------|
E|---------------------------------------------------------------------------|
A|---------------------------------------------------------------------------|



B|---------------------------------------------------------------------------|
F|---------------------------------------------------------------------------|
D|---------------------------------------------------------------------------|
A|--10--\-9-----------------2---2----------9--\-7----------------2----10-----|
E|---8--\-7---0---5p0---3---0---0----------7--\-5---0---5p0---3--0-----8-----|
A|---------------------------------------------------------------------------|



B|---------------------------------------------------------------------------|
F|--13----------------------15--------17---15--------------------18---13-----|
D|-----------------------14--------14-------------------------14-------------|
A|---------------------------------------------------------------------------|
E|---------------------------------------------------------------------------|
A|---------------------------------------------------------------------------|


(pré-refrão)

B|---------------------------------------------------------------------------|
F|--3------------------------------------------------------------------------|
D|--2-----------------------------------5------------------------------------|
A|--0-----------------3-----------------5-----------------5------------------|
E|--0-----------------3-----------------3-----------------5------------------|
A|--0-----------------3-----------------------------------5------------------|



B|---------------------------------------------------------------------------|
F|--15-------17-------13-------12-------13-----15-----13--12-----13-----15---|
D|---x--------x--------x--------x--------x------x------x---x------x------x---|
A|--12-------14-------10--------9-------10-----12-----10---9-----10-----12---|
E|---------------------------------------------------------------------------|
A|---------------------------------------------------------------------------|


(refrão 2x)

B|---------------------------------------------------------------------------|
F|--3------------------------------------------------------------------------|
D|--2--------2--------------------------5------5-----------------------------|
A|--0--------0--------3--------3--------5------5----------5------5-----------|
E|--0--------0--------3--------3--------3------3----------5------5-----------|
A|--0--------0--------3--------3--------------------------5------5-----------|



B|---------------------------------------------------------------------------|
F|--15-------17-------13-------12-------13-----15-----13--12-----13-----15---|
D|---x--------x--------x--------x--------x------x------x---x------x------x---|
A|--12-------14-------10--------9-------10-----12-----10---9-----10-----12---|
E|---------------------------------------------------------------------------|
A|---------------------------------------------------------------------------|


(ponte)

B|-----17----------------------------15-----17-------------------------------|
F|----------17-14-----17-14----14----------------17-14-----17-14-------15-18-|
D|--14---14--------14-------14----14-----14---14--------14-------14-15-------|
A|---------------------------------------------------------------------------|
E|---------------------------------------------------------------------------|
A|---------------------------------------------------------------------------|



B|-----17----------------------------15-----17-------------------------------|
F|----------17-14-----17-14----14----------------17-14-----17-14----15----18-|
D|--14---14--------14-------14----14-----14---14--------14-------14----15----|
A|---------------------------------------------------------------------------|
E|---------------------------------------------------------------------------|
A|---------------------------------------------------------------------------|



B|---------------------------------------------------------------------------|
F|---------------------------------------------------------------------------|
D|----2-----------2------------------------2-----------2---------------------|
A|----2-----------2------------------------2-----------2---------------------|
E|----0-----------0------------------------0-----------0---------------------|
A|---------------------------------------------------------------------------|



B|-----17----------------------------15-----17-------------------------------|
F|----------17-14-----17-14----14----------------17-14-----17-14-------15-18-|
D|--14---14--------14-------14----14-----14---14--------14-------14-15-------|
A|---------------------------------------------------------------------------|
E|---------------------------------------------------------------------------|
A|---------------------------------------------------------------------------|



B|---------------------------------------------------------------------------|
F|---------------------------------------------------------------------------|
D|----2-----------2------------------------2-----------2---------------------|
A|----2-----------2--------------2--2---2--2-----------2-------------2--2---2|
E|----0-----------0--------------0--0---0--0-----------0-------------0--0---0|
A|---------------------------------------------------------------------------|



B|-----17----------------------------15-----17-------------------------------|
F|----------17-14-----17-14----14----------------17-14-----17-14----15----18-|
D|--14---14--------14-------14----14-----14---14--------14-------14----15----|
A|---------------------------------------------------------------------------|
E|---------------------------------------------------------------------------|
A|---------------------------------------------------------------------------|



B|---------------------------------------------------------------------------|
F|---------------------------------------------------------------------------|
D|----2-----------2------------------------2-----------2---------------------|
A|----2-----------2--------------2--2---2--2-----------2-------------2--2---2|
E|----0-----------0--------------0--0---0--0-----------0-------------0--0---0|
A|---------------------------------------------------------------------------|



B|-----17----------------------------15-----17-------------------------------|
F|----------17-14-----17-14----14----------------17-14-----17-14-------15-18-|
D|--14---14--------14-------14----14-----14---14--------14-------14-15-------|
A|---------------------------------------------------------------------------|
E|---------------------------------------------------------------------------|
A|---------------------------------------------------------------------------|



B|-----------------------------------15--------------------------------------|
F|------14--17--14----17-14----14------------14--17--14----17-14----14----15-|
D|--14-------------14-------14----14-----14-------------14-------14----14----|
A|---------------------------------------------------------------------------|
E|---------------------------------------------------------------------------|
A|---------------------------------------------------------------------------|



B|---------------------------------------------------------------------------|
F|---------------------------------------------------------------------------|
D|---------------------------------------------------------------------------|
A|--10--\-9-----------------2---2----------9--\-7-----------------2---2------|
E|---8--\-7---0---5p0---3---0---0----------7--\-5---0---5p0---3---0---0------|
A|---------------------------------------------------------------------------|



B|---------------------------------------------------------------------------|
F|---------------------------------------------------------------------------|
D|---------------------------------------------------------------------------|
A|--10--\-9-----------------2---2----------9--\-7----------------2----10-----|
E|---8--\-7---0---5p0---3---0---0----------7--\-5---0---5p0---3--0-----8-----|
A|---------------------------------------------------------------------------|


(pré-refrão)

B|---------------------------------------------------------------------------|
F|--3------------------------------------------------------------------------|
D|--2-----------------------------------5------------------------------------|
A|--0-----------------3-----------------5-----------------5------------------|
E|--0-----------------3-----------------3-----------------5------------------|
A|--0-----------------3-----------------------------------5------------------|



B|---------------------------------------------------------------------------|
F|--15-------17-------13-------12-------13-----15-----13--12-----13-----15---|
D|---x--------x--------x--------x--------x------x------x---x------x------x---|
A|--12-------14-------10--------9-------10-----12-----10---9-----10-----12---|
E|---------------------------------------------------------------------------|
A|---------------------------------------------------------------------------|


(refrão)

B|---------------------------------------------------------------------------|
F|--3------------------------------------------------------------------------|
D|--2--------2--------------------------5------5-----------------------------|
A|--0--------0--------3--------3--------5------5----------5------5-----------|
E|--0--------0--------3--------3--------3------3----------5------5-----------|
A|--0--------0--------3--------3--------------------------5------5-----------|



B|---------------------------------------------------------------------------|
F|--15-------17-------13-------12-------13-----15-----13--12-----13-----15---|
D|---x--------x--------x--------x--------x------x------x---x------x------x---|
A|--12-------14-------10--------9-------10-----12-----10---9-----10-----12---|
E|---------------------------------------------------------------------------|
A|---------------------------------------------------------------------------|



B|---------------------------------------------------------------------------|
F|---------------------------------------------------------------------------|
D|---------------------------------------------------------------------------|
A|--10--\-9-----------------2---2----------9--\-7----------------2----10-----|
E|---8--\-7---0---5p0---3---0---0----------7--\-5---0---5p0---3--0-----8-----|
A|---------------------------------------------------------------------------|



B|---------------------------------------------------------------------------|
F|---------------------------------------------------------------------------|
D|---------------------------------------------------------------------------|
A|--10--\-9-----------------2---2----------9--\-7-----------------2---2------|
E|---8--\-7---0---5p0---3---0---0----------7--\-5---0---5p0---3---0---0------|
A|---------------------------------------------------------------------------|


B|---------------------------------------------------------------------------|
F|---------------------------------------------------------------------------|
D|---------------------------------------------------------------------------|
A|--10--\-9-----------------2---2----------9--\-7-----------------2----------|
E|---8--\-7---0---5p0---3---0---0----------7--\-5---0---5p0---3---0----------|
A|---------------------------------------------------------------------------|

Top cifras de Brian Head Welch

  1. L.o.v.e

Pela Web