Cifras Web
Brian Tyler

Assassin's Creed 4: Black Flag Theme

Brian Tyler

131 acessos

E|------------------------------|
B|------------------------------|
G|--5---3---5---7---8---7---5---|
D|------------------------------|
A|------------------------------|
E|------------------------------|

E|----------------------------------------------|
B|--7--5-------------5--7--5-------------5---7--|
G|--------7--5--7--------------7--5--7----------|
D|----------------------------------------------|
A|----------------------------------------------|
E|----------------------------------------------|

E|---------------------|
B|-5--7--9--10--9--7---|
G|---------------------|
D|---------------------|
A|---------------------|
E|---------------------|

TOP cifras de Brian Tyler

  1. Assassin's Creed 4: Black Flag Theme
  2. Mustang Nismo
  3. Welcome To Tokyo
  4. Assassin's Creed 4: Black Flag Theme

Pela Web