Cifras Web
Brian Tyler

Mustang Nismo

Brian Tyler

31 acessos

This Is How I Play The Song. Not Sure At All On The Solo, But The Riffs and Heavy 
Are Correct I Think. Never Seen A Tab For This...So Far...

Excuse Any Mistakes


E|--------------------------------------------|
B|--------------------------------------------|
G|--------------------------------------------|
D|--2------------2----------------------------| (x3)
A|--2------------2----------------------------|
E|--0-0-3-0------0-0-3-0-3/5------------------|



E|-----------------------------------------------------|
B|-----------------------------------------------------|
G|-----------------------------------------------------|
D|--2------------2-------------2----------2------------|
A|--2------------2-------------2----------2------------|
E|--0-0-3-0------0-0-3-0-3/5-3-0-0-3-0----0-0-3-0-3/5--|



E|---------------------------------------------|
B|---------------------------------------------|
G|---------------------------------------------|
D|--2------------2--------7-5-2----------------|
A|--2------------2--------7-5-2----------------|
E|--0-0-3-0------0-0-3-0--5-3-0-0-3-0----------|


E|--------------------------------------------|
B|--------------------------------------------|
G|--------------------------------------------|
D|--2------------2----------------------------|
A|--2------------2----------------------------|
E|--0-0-3-0------0-0-3-0-3/5------------------|

TOP cifras de Brian Tyler

  1. Assassin's Creed 4: Black Flag Theme
  2. Mustang Nismo
  3. Welcome To Tokyo
  4. Assassin's Creed 4: Black Flag Theme

Pela Web