Cifras Web
British Sea Power

Apologies To Insect Life

British Sea Power

7 acessos

Tabbed by Eren OGRUL
Not completely correct but sound good to me.
* U up D down


Bass Intro

G|-----------|
D|-----3-----|
A|---5---5---| x8
E|-5---------|



   U D U D UD UD U D U D U D U

e|---------------0-0-0-0-0-0-0-|        e|-------------------------|
B|-10--10--8--8--5-5-5-5-5-5-5-|        B|-10~10~10~10~10-9-9-9-9~-|
G|---9---9--9--9---------------|        G|-------------------------|
D|-----------------------------| x3     D|-------------------------|
A|-----------------------------|        A|-------------------------|
E|-----------------------------|        E|-------------------------|



e|-------------------|
B|-------------------|
G|-------------------|
D|-0-2-3-7--0-2-3-5--| x2
A|-------------------|
E|-------------------|



e|-----------------------     e|-------------|
B|-----------------------     B|-------------|
G|-2-0-0-----------------     G|-------------|
D|----3-3-2-3-2-0-0-0-0-- x3  D|-3-0-5-0-7~--|
A|-----------------------     A|-------------|
E|-----------------------     E|-------------|



e|------------------------------------|
B|-10-10-15-15-15-15-18-15-15-15-15---|
G|--9--9-14-14-14-14-17-14-14-14-14---| x3
D|--0--0--0--0--0--0--0--0--0--0--0---|
A|------------------------------------|
E|------------------------------------|



e|-----------------------------------  e|----------|
B|-10-10-15-15-15-15-18-18-18-18--15-  B|-x-x-x-x--|
G|--9--9-14-14-14-14-17-17-17-17--14-  G|-x-x-x-x--|
D|--0--0--0--0--0--0--0--0--0--0---0-  D|-x-x-x-x--|
A|-----------------------------------  A|----------|
E|-----------------------------------  E|----------|



e|-------------------|
B|-------------------|
G|-------------------|
D|-0-2-3-7--0-2-3-5--| x2
A|-------------------|
E|-------------------|



e|-----------------------     e|-------------|
B|-----------------------     B|-------------|
G|-2-0-0-----------------     G|-------------|
D|----3-3-2-3-2-0-0-0-0-- x3  D|-3-0-5-0-7~--|
A|-----------------------     A|-------------|
E|-----------------------     E|-------------|



e|------------------------------------|
B|-10-10-15-15-15-15-18-15-15-15-15---|
G|--9--9-14-14-14-14-17-14-14-14-14---| x3
D|--0--0--0--0--0--0--0--0--0--0--0---|
A|------------------------------------|
E|------------------------------------|



e|-----------------------------------|
B|-10-10-15-15-15-15-18-18-18-18--15-|
G|--9--9-14-14-14-14-17-17-17-17--14-|
D|--0--0--0--0--0--0--0--0--0--0---0-|
A|-----------------------------------|
E|-----------------------------------|


e|-------------------------------------------------------------------------|
B|-------------------------------------------------------------------------|
G|-10-9-10-9-10-9-10-9-10-9-7-7-7-7--10-9-10-9-10-9-10-9-10-9-14-14-14-14--|
D|-------------------------------------------------------------------------|
A|-------------------------------------------------------------------------|
E|-------------------------------------------------------------------------|

TOP cifras de British Sea Power

  1. Childhood Memories
  2. Favours In The Beetroot Fields
  3. North Hanging Rock
  4. Carrion
  5. Apologies To Insect Life
  6. It Ended On An Oily Stage

Pela Web