Cifras Web
Caio R.

Starwair to Heaven

Caio R.

13 acessos


  Am                   Am7   Fmaj7
|----------5---------------|------------------8--8-|
|------------8-5-----------|-------------8b10------|
|---7b9----------7-5---7p5-|-----------------------|
|--------------------7-----|-7p5-------------------|
|--------------------------|----8------------------|
|--------------------------|-----------------------|


   Am             Am7         Fmaj7
|--8b10---8--5  -----8--10-|-8-----------------------5-------|
|---------------8b10-------|---10-8----8h10------------8-5---|
|--------------------------|--------10-----------7b9-------7-|
|--------------------------|---------------------------------|
|--------------------------|---------------------------------|
|--------------------------|---------------------------------|


   Am             Am7          Fmaj7
|----------------------------|----5------------------------|
|----------------------------|------8-5--------------------|
|-5---7p5------------5---5-5-|----------7-5--7p5-----------|
|---7-----7-5---5-7----7-----|-5------------7----7p5-7p5---|
|-------------7--------------|---------------------------8-|
|----------------------------|-----------------------------|


   Am             Am7
|---------------------------------------------|
|------------------------------------------13-|
|---------10-------------------12----12-14----|
|------10----12-10----10-12/14----14----------|
|-8/12-------------12-------------------------|
|---------------------------------------------|


  Fmaj7
|------------------------15b17-15-12----------------|
|--15b17-15-13--15-13-13-------------15b17-15-13----|
|------------------------------------------------14-|
|---------------------------------------------------|
|---------------------------------------------------|
|---------------------------------------------------|


  Am                                        Am7
|----------------------------------------------------------------------------|
|-13-15b17b15p13----13-15b17b15p13----13---15b17b15p13----13--15b17b15p13----|
|----------------14----------------14------------------14-----------------14-|
|----------------------------------------------------------------------------|
|----------------------------------------------------------------------------|
|----------------------------------------------------------------------------|


  Fmaj7
|----------------------------------------------------------------------------|
|-13-15b17b15p13----13--15b17b15p13----13--15b17b15p13----13--15b17b15p13----|
|----------------14-----------------14-----------------14-----------------14-|
|----------------------------------------------------------------------------|
|----------------------------------------------------------------------------|
|----------------------------------------------------------------------------|


  Am                       Am7           
|------------------------------------------15b17--|
|-13--15b17b15p13----13---15b17b15p13----13-------|
|-----------------14------------------14----------|
|-------------------------------------------------|
|-------------------------------------------------|
|-------------------------------------------------|


  Fmaj7
|-b17b15-12---12--------------------------------15--|
|-----------15---15--13----13-15-13---13--15b17-----|
|-----------------------14----------14--------------|
|---------------------------------------------------|
|---------------------------------------------------|
|---------------------------------------------------|


  Am          Am7                Fmaj7
-----------------------------|-----------17----------------------------------|
-15b17b15p13----13/12--13/10-|--------20----20-20----------------------------|
-------------14--------------|--19b21-21----------19b21b19p17---19--17----19-|
-----------------------------|--------------------------------19-------19----|
-----------------------------|-----------------------------------------------|
-----------------------------|-----------------------------------------------|


  Am       Am7         Fmaj7                             Am    Am7
|--------------------|--------------------------------|--------------|
|--------------------|--------------------------------|--------------|
|-19b21--13/12 13/10-|--14b17--14b17-14--12--14--12-12b14------------|
|--------------------|--------------------------------|--------------|
|--------------------|--------------------------------|--------------|
|--------------------|--------------------------------|--------------|


  Fmaj7                               Am        Am7
|-----------------------------------|----------8/7--8/5--|
|-----------------------------------|--------------------|
|-10b14----10b12b10-9-7----7--------|-7-9-7--------------|
|-----------------------10----10----|-------10-7---------|
|-----------------------------------|--------------------|
|-----------------------------------|--------------------|

  Fmaj7
|----20-p17------20-p17------20-p17------20-p17------20-p17-----20b22-|
|-17--------17----------17----------17----------17----------17--------|
|---------------------------------------------------------------------|
|---------------------------------------------------------------------|
|---------------------------------------------------------------------|
|---------------------------------------------------------------------|

TOP cifras de Caio R.

  1. Starwair to Heaven

Pela Web