Cifras Web
Carla Bruni

Quelqu'un M'a Dit (studio Version)

Carla Bruni

17 acessos


          Bb            F             Gm           D#9
E |-------------|-------------|-------------|---------------------|
B |---------3---|---------1---|---------3---|---------6-----------|
G |-----3-----3-|-----2-----2-|-----3-----3-|-----8-----8---------|
D |---3---3-----|---3---3-----|---5---5-----|---8---8-------------|
A  |-1-----------|-------------|-------------|-6------------------|
E |-------------|-1-----------|-3-----------|---------------------|


(intro)

          Bb
E |-----------------------------------------------------------|
B |---------3-------------3------------3------------3---------|
G |-----3-----3-------3-----3------3------------3-----3-------|
D |---3---3---------3---3--------3---3--------3---3-----------|
A |-1-------------1------------1------------1-----------------|
E |---------------------------------------1-------------------|


Bb                                         F
On me dit que nos vies ne valent pas grand chose,
                       Gm                   D#9
elles passent en un instant comme fanent les roses.
                 Bb                      F
On me dit que le temps qui glisse est un salaud
              Gm                       D#9
que de nos chagrins il s'en fait des manteaux
                       Bb
pourtant quelqu'un m'a dit...

F       Gm       D#
Que tu m'aimais encore,
                        Bb  F       Gm       D#
C'est quelqu'un qui m'a dit que tu m'aimais encore

(riff 1)

          Bb       F      Gm      D#
E |----6-------5-------3---------1------|
B |----------------------------4--------|
G |--3-------5-------0-------3----------|


                    Bb (riff 1)    ( F    Gm    D# )
Serais ce possible alors?

( Bb    F    Gm    D# )

                    Bb                   F
On me dit que le destin se moque bien de nous
                    Gm                       D#
Qu'il ne nous donne rien et qu'il nous promet tout
                Bb                   F
Parais qu'le bonheur est à portée de main,
                 Gm                    D#
Alors on tend la main et on se retrouve fou
                       Bb
Pourtant quelqu'un m'a dit...

F       Gm       D#
Que tu m'aimais encore,
                        Bb  F       Gm       D#
C'est quelqu'un qui m'a dit que tu m'aimais encore
                    Bb (riff1)    F    Gm    D#
Serais ce possible alors?
                    Bb    F    Gm    D#
Serais ce possible alors?

(riff 2)

  Bb       F      Gm      D#
E |---6--------5--------3--------1------|
B |-------------------------------------|


                        Bb (riff 2)        F
Mais qui est ce qui m'a dit que toujours tu m'aimais?
                  Gm                       D#
Je ne me souviens plus c'était tard dans la nuit,
                   Bb                             F
J'entend encore la voix, mais je ne vois plus les traits
                        G#m                                D#
"Il vous aime, c'est secret, lui dites pas que j'vous l'ai dit"

                      Bb (riff 2)
Tu vois quelqu'un m'a dit...

F       Gm       D#                         Bb
Que tu m'aimais encore, me l'a t'on vraiment dit...
F        Gm      D#                         Bb (riff 1)
Que tu m'aimais encore, serais ce possible alors ?

F       Gm   D#
        mmmmmmmmmmmmm
Bb      F       Gm   D#
Mmmm... mmmm...

(solo)

           Bb           F           Gm           D#            Bb      F      Gm
E |-------------------------------------8--10--11--13--------------|
B |--------------------------8--10--11-----------------------------|
G |------10---------7--8--9----------------------------------------|
D |-8--------8--10-------------------------------------------------|
A |----------------------------------------------------------------|
E |----------------------------------------------------------------|



                           D#            Bb              F                   Gm
E |---------------------------------------------------------------------------|
B |-8-10-11-11h10-8-10-8-6--6h8p6--------------------------6\8--6-------------|
G |-------------------------------7h8p7-5---7h8p7-------5----------5----------|
D |---------------------------------------8-------7--8----------------5--7--8-|
A |---------------------------------------------------------------------------|
E |---------------------------------------------------------------------------|



                D#           Bb     F       Gm        D#
E |---------------------------------------13/10--10/6------------------|
B |------6--------------------------------11-----11--------------------|
G |-7-------8--7--5-----7----5h7--5------------------------------------|
D |---8-------------8----------------8---------------------------------|
A |--------------------------------------------------------------------|
E |--------------------------------------------------------------------|


                  Bb                       F
On me dit que nos vies ne valent pas grand chose,
                    Gm                      D#
Elles passent en un instant comme fanent les roses
                 Bb                      F
On me dit que le temps qui glisse est un salaud
               Gm                        D#
Que de nos tristesses il s'en fait des manteaux,

(riff 3)

       Bb        F       Gm       D#     Bb        F       Gm       D#
E |-----6--------5-------6-5--------------6---------5-------6-5------------|
B |---6--------6-------------8-6--------6---------6-------------8-6-8------|
G |------------------------------7-----------------------------------------|


                           Bb (riff 3)
Pourtant quelqu'un m'a ... dit
F       Gm       D#
Que tu m'aimais encore,
                        Bb  F       Gm       D#
C'est quelqu'un qui m'a dit que tu m'aimais encore
                    Bb
Serais ce possible alors?
F      Gm    D#
mmm... mmmmmmmmmmmm
Bb     F      Gm    D#    Bb
mmm... mmm... mmmmmmmmmmmm mmm

(final)

   Bb (na 6ª casa)
E |-----------6- ^
B |---------6----|
G |-------7------|
D |-----8--------|
A |---8----------|
E |-6------------|

TOP cifras de Carla Bruni

  1. Raphaël
  2. Quelqu'un m'a dit
  3. L'excessive
  4. Le Ciel Dans Une Chambre
  5. Tout Le Monde
  6. L'amoureuse
  7. J'en Connais
  8. La Noyée
  9. Le Plus Beau Du Quartier
  10. La Dernière Minute

Pela Web