Cifras Web
Carpathian Forest

Hes Turning Blue

Carpathian Forest

9 acessos

2000 album "Strange old brew"

Transcribed by Lord Upir on 4 November 2000

Normal tuning

d=downstroke
u=upstroke

Intro riff (also first verse)

e|--------------------------------------------------------------------------------------------|
B|--------------------------------------------------------------------------------------------|
G|--------------------------------------------------------------------------------------------|
D|-4/5-5--5-5--5-5--5--5--4/5-5--5-5--5-5--5--5-----------------------------------------------|
A|-2/3-3--3-3--3-3--3--3--2/3-3--3-3--3-3--3--3--2/3-3--3-3--3-3--3--3--2/6-6--6-6--6-6--6--6-|
E|-----------------------------------------------0/1-1--1-1--1-1--1--1--0/4-4--4-4--4-4--4--4-|


tremolo pick this

e|--------------------------------------------------|
B|--------------------------------------------------|
G|--------------------------------------------------|
D|-7---------------------------6--------------------|
A|-7---------------------------6--------------------|
E|-5---------------------------4--------------------|

"ooooooohhh...."

Play E5 pc

Riff 2
   1 e 2 e 3 e 4 e
   d u   u d u d u

e|-------------------|
B|-------------------|
G|-------------------|
D|-2-3---3-6-6-8-8---|
A|-2-3---3-6-6-8-8---|
E|-0-1---1-4-4-6-6---|


Tremolo pick this, 2b

e|--------------------------------------|
B|--------------------------------------|
G|-4------------------7-----------------|
D|-4------------------7-----------------|
A|-2------------------5-----------------|
E|--------------------------------------|


Play E5 pc

Riff 3a
   d    d u d       d  d u  d u d     

e|---------------------------------|
B|---------------------------------|
G|---------------------------------|
D|-5/7--7-7-7-x-x-x-8--8-5--5-5-5--|
A|-5/7--7-7-7-x-x-x-8--8-5--5-5-5--|
E|-3/5--5-5-5-x-x-x-6--6-3--3-3-3--|


3b

e|-----------------------------|
B|-----------------------------|
G|----------------7-7-7-7-7-7--|
D|-8------7-------7-7-7-7-7-7--|
A|-8------7-------5-5-5-5-5-5--|
E|-6-6tr8-5-5tr7---------------|


Play riff 3a
Play riff 3b
Play riff 3a

Play E5 pc

Play riff 2
Play riff 2b

Play E5 pc

TOP cifras de Carpathian Forest

  1. Carpathian Forest
  2. The Woods Of Wallachia
  3. Angel And The Sodomizer
  4. Knokkelmann
  5. Bloodlust And Perversion
  6. Journey Through The Cold Moors Of Svarttjern
  7. Lunar Nights
  8. Black Shining Leather
  9. Dtwteasotld
  10. One With The Earth

Pela Web