Cifras Web
Cauê Moura

Pedrada

Cauê Moura

15 acessos

Tuning: Drop Db

A palavra é um soco na cara...

Eb|----------------------------------------------------|
Bb|----------------------------------------------------|
Gb|----------------------------------------------------|
Db|---6-6-6-6-6-2-6-6-6-6-6-2-1-1-1-1-1-1-2-2-2-2-2-1--|
Ab|---6-6-6-6-6-2-6-6-6-6-6-2-1-1-1-1-1-1-2-2-2-2-2-1--|
Db|---6-6-6-6-6-2-6-6-6-6-6-2-1-1-1-1-1-1-2-2-2-2-2-1--|

PM             ...         ...         ...         ...

ROUND 1... (Nessa parte, eu usei um clean com delay).

gt. 1

Eb|---------7-----------------7------------------------|
Bb|-----9-----9---9-------9-----9---9----------7-------|
Gb|-8-8---8-----8-----8-8---8-----8--------8-----8---8-|
Db|------------------------------------9-9---9-----9---|
Ab|----------------------------------------------------|
Db|----------------------------------------------------|



Eb|----------------------------------------------------|
Bb|----------------------------------------------------|
Gb|-----8---6p8/9/8------------------------------------|
Db|-8-8---8--------------------------------------------|
Ab|----------------------------------------------------|
Db|----------------------------------------------------|


gt. 2

Eb|-------------11-----------------------11------------|
Bb|-------12-------12----12--------12-------12----12---|
Gb|-13-13----13-------13-----13-13----13-------13------|
Db|----------------------------------------------------|
Ab|----------------------------------------------------|
Db|----------------------------------------------------|



Eb|----------------------------------------------------|
Bb|-------------16-------------------------------------|
Gb|-------11-------11----11--------13----11p13/16/13---|
Db|-14-14----14-------14-----13-13----13---------------|
Ab|----------------------------------------------------|
Db|----------------------------------------------------|



Base

Eb|----------------------------------------------------|
Bb|----------------------------------------------------|
Gb|----------------------------------------------------|
Db|---6-6-6-6-6-2-6-6-6-6-6-2-1-1-1-1-1-1-2-2-2-2-2-1--|
Ab|---6-6-6-6-6-2-6-6-6-6-6-2-1-1-1-1-1-1-2-2-2-2-2-1--|
Db|---6-6-6-6-6-2-6-6-6-6-6-2-1-1-1-1-1-1-2-2-2-2-2-1--|



A palavra é um soco na cara...

Eb|----------------------------------------------------|
Bb|----------------------------------------------------|
Gb|----------------------------------------------------|
Db|---6-6-6-6-6-2-6-6-6-6-6-2-1-1-1-1-1-1-2-2-2-2-2-1--|
Ab|---6-6-6-6-6-2-6-6-6-6-6-2-1-1-1-1-1-1-2-2-2-2-2-1--|
Db|---6-6-6-6-6-2-6-6-6-6-6-2-1-1-1-1-1-1-2-2-2-2-2-1--|

PM             ...         ...         ...         ...

Riff refrão

Eb|----------------------------------------------------|
Bb|---------9-7--------------9-7-----------------------|
Gb|-----8-------8-6------8-------8-6-------------------|
Db|-6-6---6----------6-6---6---------------------------|
Ab|----------------------------------------------------|
Db|----------------------------------------------------|

PM   ...   .          ...   .


Eb|----------------------------------------------------| |-------------------|
Bb|----------------------------------------------------| |-------------------|
Gb|----------------------------------------------------| |-------------------|
Db|-----9---9/11/9-8------8---8/9/8-6------------------| |-----8---8/9/8-4-6-|
Ab|-7-7---7-----------6-6---6--------------------------| |-6-6---6-----------|
Db|----------------------------------------------------| |-------------------|

PM   ...   .           ...   .                              ...   .

Vou montar a tab do solo e posto aqui depois.

Top cifras de Cauê Moura

  1. Carnívoro Song
  2. Bob
  3. Festa Meme
  4. Sou Mau
  5. Pedrada

Pela Web