Cifras Web
Celebrando a Verdade

Reinar Em Vida

Celebrando a Verdade

21 acessos

INTRO: D (SOLO)


e|---------------------------------------------------|
a|-5-5---------------------------5---5-4-3-4-5---5-5-|
d|---------7--------7---7-6--5-3---3-----------3-----|
g|-----7-5---5--7-5---5------------------------------|
b|---------------------------------------------------|
e|-----------------------------------------------|
e|-----------------------------------------------|
a|---------------------------5---5-4-3-4-5---5-5-|
d|-----7--------7---7-6--5-3---3-----------3-----|
g|-7-5---5--7-5---5------------------------------|
b|-----------------------------------------------|
e|-----------------------------------------------|


D                                  (C C# D)
Os que receberam abundância da graça e o dom da justiça
G            A     Bm
Reinarão em vida

               E                 Bm
Por meio de jesus que nos chamou
               E                 Bm
Por meio de jesus que nos salvou
               G              A            D
Por meio de jesus que nos chamou para reinar

D                   A
Reinar, reinar em vida,
                   G     Em  A
Reinar, reinar em vida
                  D
Eu nasci para reinar
                  C
Reinar, reinar em vida,
                   G/B  G/Bb
Reinar, reinar em vida

(volta pr0 solo da intro)


e|---------------------------------------------------|
a|-5-5---------------------------5---5-4-3-4-5---5-5-|
d|---------7--------7---7-6--5-3---3-----------3-----|
g|-----7-5---5--7-5---5------------------------------|
b|---------------------------------------------------|
e|-----------------------------------------------|
e|-----------------------------------------------|
a|---------------------------5---5-4-3-4-5---5-5-|
d|-----7--------7---7-6--5-3---3-----------3-----|
g|-7-5---5--7-5---5------------------------------|
b|-----------------------------------------------|
e|-----------------------------------------------|


        G    D/F#   Em                     A
Pra reinar em vida, foi pra isso que eu nasci
      G          D/F#       Em        D/F#  G
Em jesus a minha vida, tem paz, amor, alegria,
Em        D/F#  G       A
Plenitude da vida de deus

                  D             A
Eu nasci para reinar, reinar em vida,
                   G     Em  A
Reinar, reinar em vida
                  D
Eu nasci para reinar
                  C
Reinar, reinar em vida,
                   G/B  G/Bb
Reinar, reinar em vida


e|---------------------------------------------------|
a|-5-5---------------------------5---5-4-3-4-5---5-5-|
d|---------7--------7---7-6--5-3---3-----------3-----|
g|-----7-5---5--7-5---5------------------------------|
b|---------------------------------------------------|
e|---------------------------------------------------|



e|-------------------------------------------|
a|---------------------------5---5-4-3-4-5---|
d|-----7--------7---7-6--5-3---3-----------3-|
g|-7-5---5--7-5---5--------------------------|
b|-------------------------------------------|
e|-------------------------------------------|



e|---------------------------------------------------|
a|-7-7---------------------------7---7-6-5-6-7---7-7-|
d|---------9--------9---9-8--7-5---5-----------5-----|
g|-----9-7---7--9-7---7------------------------------|
b|---------------------------------------------------|
e|---------------------------------------------------|



e|-----------------------------------------------|
a|---------------------------7---7-6-5-6-7---5---|
d|-----9--------9---9-8--7-5---5-----------5-----|
g|-9-7---7--9-7---7------------------------------|
b|-----------------------------------------------|
e|-----------------------------------------------|

TOP cifras de Celebrando a Verdade

  1. Tu És o Dono do Meu Coração
  2. Reinar Em Vida
  3. Vivo Para Ti
  4. Digno É o Cordeiro
  5. Celebrando a Verdade
  6. Tua é a Glória
  7. Uma Nova História
  8. Ele Fez Por Mim
  9. Fonte de Milagres
  10. Tudo Posso

Pela Web