Cifras Web
Celtic Frost

A Dying God Coming Into Human Flesh Intro

Celtic Frost

10 acessos

Tabbed by: Jourdan Harper
Email: *

Tuning: Drop C


e|---------------------------------------------------------------------------|
B|---------------------------------------------------------------------------|
G|---------------------------------------------------------------------------|
D|---------------------------0------------------------------2----------------|
A|--------------------------0------------------------------2-----------------|
E|----------3^-------------3--------------3^--------------3------------------|



e|---------------------------------------------------------------------------|
B|---------------------------------------------------------------------------|
G|-----------------5p4---------5p4---------5p4---------5p4----9--------------|
D|---------------------------------------------------------------------------|
A|---------------------------------------------------------------------------|
E|---------------------------------------------------------------------------|



e|---------------------------------------------------------------------------|
B|---------------------------------------------------------------------------|
G|---------3-/-5-------5^----5^-------3-/-5------------3~--------------------|
D|---------3-/-5-------5^----5^-------3-/-5------------3~--------------------|
A|---------1-/-3-------3^----3^-------1-/-3------------1~--------------------|
E|---------0-/-0-------0^----0^-------0-/-0------------0~--------------------|



| /  slide up
| \  slide down
| h  hammer-on
| p  pull-off
| ~  vibrato
| +  harmonic
| x  Mute note
===============================================================================

TOP cifras de Celtic Frost

  1. The Usurper
  2. Fainted Eyes
  3. Circle Of The Tyrants
  4. I Wont Dancethe Elders Orient
  5. A Dying God Coming Into Human Flesh
  6. A Dying God Coming Into Human Flesh Intro
  7. Ground
  8. Morbid Tales
  9. Visions Of Mortality
  10. Inner Sanctum

Pela Web