Cifras Web
Celtic Frost

A Dying God Coming Into Human Flesh

Celtic Frost

10 acessos

Monotheist

Tune to C

CFBEGC


Verse (clean)(repeat through whole verse)

||-------------------------------------||
||o-----------------------------------o||
||-------------------------------------||
||------------2-------------0----------||
||o---------2-------------0-----------o||
||--3^----0--------3^---3--------------||


Chorus (Distorted)(repeat through whole chorus, speed up at the end)

||------------------------------------------------------------------------||
||------------------------------------------------------------------------||
||------------------------------------------------------------------------||
||-4/6-(6)------6^--6^---4/6-(6)---4--------------------------------------||
||-4/6-(6)------6^--6^---4/6-(6)---4--------------------------------------||
||-2/4-(4)------4^--4^---2/4-(4)---2--------------------------------------||


This is the whole song, i recommend playing along with the track to get timeing down. 
me some feed back, my first tab

TOP cifras de Celtic Frost

  1. The Usurper
  2. Fainted Eyes
  3. Circle Of The Tyrants
  4. I Wont Dancethe Elders Orient
  5. A Dying God Coming Into Human Flesh
  6. A Dying God Coming Into Human Flesh Intro
  7. Ground
  8. Morbid Tales
  9. Visions Of Mortality
  10. Inner Sanctum

Pela Web