Cifras Web
Celtic Frost

Cherry Orchards

Celtic Frost

9 acessos

| /  slide up
| \  slide down
| h  hammer-on
| p  pull-off
| ~  vibrato
| +  harmonic
| x  Mute note

RIFF 1

e|-----------------------------------------------------------------------|
B|-----------------------------------------------------------------------|
G|-----------5-4---------6-5---------------------------------------------|
D|-----8-7---5-4---8-7---6-5---------------------------------------------|
A|-0-0-6-5-0-3-2-0-6-5-0-4-3-0-0-0-0-0-0-0-------------------------------|
E|-----------------------------------------------------------------------|

   x x     x     x     x     x x x x x x x 

RIFF 2

e|-----------------------------------------------------------------------|
B|-----------------------------------------------------------------------|
G|-----------------------------------------------------------------------|
D|-----9-----9-----8-----7-----7-9---------------------------------------|
A|-----7-----7-----6-----5-----5-7---------------------------------------|
E|-0-0---0-0---0-0---0-0---0-0-------------------------------------------|

   x x   x x   x x   x x   x x

RIFF 3a

e|-----------------------------------------------------------------------|
B|-----------------------------------------------------------------------|
G|-----------------------------------------------------------------------|
D|---------------------------9-9-9-9\------------------------------------|
A|-----4---5-----5---4---2---7-7-7-7\------------------------------------|
E|-0-0-2-0-3-0-0-3-0-2-0-0-0---------------------------------------------|

   x x   x   x x   x   x   x

RIFF 3b

e|-----------------------------------------------------------------------|
B|-----------------------------------------------------------------------|
G|-----------------------------------------------------------------------|
D|-----------------------9-9-9-9\----------------------------------------|
A|-4---5-----7---5---4---7-7-7-7\----------------------------------------|
E|-2-0-3-0-0-5-0-3-0-2-0-------------------------------------------------|

     x   x x   x   x   x

RIFF 4

e|-----------------------------------------------------------------------|
B|-----------------------------------------------------------------------|
G|-----------------------------------------------------------------------|
D|-5-5-5-5-5-9-8--8-8\---------------------------------------------------|
A|-3-3-3-3-3-7-6--6-6\---------------------------------------------------|
E|-----------------------------------------------------------------------|

     x x x x

RIFF 5

e|-----------------------------------------------------------------------|
B|-----------------------------------------------------------------------|
G|-----------------------------------------------------------------------|
D|-2---------------10-------------9--------------------------------------|
A|-0-0-0-0-0-0-0-0-8--0-0-0-0-0-0-7-0-0-0-0-0-0-0-5-5---5-5--------------|
E|------------------------------------------------3-3---3-3--------------|

     x x x x x x x    x x x x x x   x x x x x x x

RIFF 1
RIFF 2
RIFF 3a & 3b
RIFF 4
RIFF 1
RIFF 2
RIFF 3a & 3b
RIFF 4
RIFF 1
RIFF 2
RIFF 5
RIFF 2
RIFF 3a & 3b
RIFF 4
RIFF 1
RIFF 2
RIFF 5

TOP cifras de Celtic Frost

  1. The Usurper
  2. Fainted Eyes
  3. Circle Of The Tyrants
  4. I Wont Dancethe Elders Orient
  5. A Dying God Coming Into Human Flesh
  6. A Dying God Coming Into Human Flesh Intro
  7. Ground
  8. Morbid Tales
  9. Visions Of Mortality
  10. Inner Sanctum

Pela Web