Cifras Web
Celtic Frost

Dethroned Emperor

Celtic Frost

9 acessos

= after note = vibrato
^ after note = heavy vibrato 
 = slide down
/ = slide up
+ = tap
h = hammer
p = pull
n = natural harmonic
s = pinching harmonic (squeal)
* = tremolo pick
t = trill
b = bend
|-3-| = triplet

n number above the tab = play the first part then the first finishing part
			 play the first part a second time and then play the second finishing part
			 etc.

Riff 1


E|------------------------------
B|------------------------------
G|------------------------------
D|-2-------3-------4-----8--7---
A|-2-------3-------4-----8--7---
E|-0-0-0-0-1-0-0-0-2-0-0-6--5---


Riff 2


E|--------------------------------------------------------------------
B|--------------------------------------------------------------------
G|-----------------------3--3--3--------------------------------------
D|-----------------------3--3--3--------------------------------------
A|-----------------------1--1--1--------------------------------------
E|-0-0-0-0-0-0-0-0-0-0-0---------0-0-0-0-0-0-0-0-0-2b3==20-20-2b3-2-0-


Riff 3


E|--------------------------------------------------
B|--------------------------------------------------
G|--------------------3------------------------5----
D|-2------4----2------3----2------6------------5----
A|-2------4----2------1----2------6------------3----
E|-0--0-0-2----0--0-0------0--0-0-4-----0--0-0------


Riff 4


E|---------------------------------------------
B|---------------------------------------------
G|-9--9-9-9-9-9--9-9-9-9-9--9-9-9-9-----9--9-9-
D|-9--9-9-9-9-9--9-9-9-9-9--9-9-9-9-10--9--9-9-
A|-7--7-7-7-7-7--7-7-7-7-7--7-7-7-7-7 --7--7-7-
E|---------------------------------------------


Riff 5


E|---------------------------------------------------------
B|---------------------------------------------------------
G|---------------------------------------------------------
D|-4--4-4-4--4-4-4--4-4-4--4-4-9--9-9-8--8-8-9--9-9-8--8-8-
A|-4--4-4-4--4-4-4--4-4-4--4-4-9--9-9-8--8-8-9--9-9-8--8-8-
E|-2--2-2-2--2-2-2--2-2-2--2-2-7--7-7-6--6-6-7--7-7-6--6-6-


Riff 5A


E|-----------------------------------------------------------
B|-----------------------------------------------------------
G|-----------------------------------------------------------
D|-4--4-4-4--4-4-4--4-4-4--4-4-9--9-9-8--8-8-9--9-9-8--8-8-2-
A|-4--4-4-4--4-4-4--4-4-4--4-4-9--9-9-8--8-8-9--9-9-8--8-8-2-
E|-2--2-2-2--2-2-2--2-2-2--2-2-7--7-7-6--6-6-7--7-7-6--6-6-0-


Fill 1


E|-----------------------------------------
B|-----------------------------------------
G|-----------------------------------------
D|-----------------------------------------
A|-----------------------------------------
E|-0--3--2-1h0-1h0-1h0-1h0-1h0-1h0-1h0-1h0-


Riff 6


E|--------------------------------------------
B|--------------------------------------------
G|--------------------------------------------
D|--------------------------------------------
A|--------------------------------------------
E|-0--0--3--2-1h0-1h0-1h0-1h0-1h0-1h0-1h0-1h0-


Order

Riff 1 x 8
Riff 2 x 2
Riff 3 x 4
Riff 4 x 4
Riff 5 x 3
Riff 5A x 1
Fill 1 x 1
Riff 6 x 3
Solo over Riff 3 x 2
Riff 1 x 8
Riff 2 x 2
Riff 3 x 4
Riff 4 x 4
Riff 5 x 3
Riff 5A x 1

TOP cifras de Celtic Frost

  1. The Usurper
  2. Fainted Eyes
  3. Circle Of The Tyrants
  4. I Wont Dancethe Elders Orient
  5. A Dying God Coming Into Human Flesh
  6. A Dying God Coming Into Human Flesh Intro
  7. Ground
  8. Morbid Tales
  9. Visions Of Mortality
  10. Inner Sanctum

Pela Web