Cifras Web
César & Peagá

Every Turn Of The World

César & Peagá

8 acessos

Transcribed by Soch Hean

Capo 2nd Fret

Intro: Bm  A  Bm  A
       Bm  G  D  A  Bm  A

Verse:
Bm                  A
We think about the loves we lost
Bm            A
Will it come again
Bm  G                D           A
We think of all the things we want
Bm              A
Will we ever win
Bm                 A
We listen to the voice of children
Bm                    A
Will they find their way
Bm            G
Keep an open heart
     D            A       D
The answer to it all's a wish away


Chorus:
D                                  A
Never let the tears you're cryin' blind you
         D                      A
To the dream that's waitin' to find you
               D         G
'Cause there's one more chance
D                        Bm
With every turn of the world
D
Is it gold or glory
   A
A taste of freedom
         D                     A
Or the strong warm touch of a body
D                     G          D                   Bm     A
There are all these things with every turn of the world


[Verse 2] Repeat Verse 1

[Chorus]

Guitar Solo:  No Capo

|--------------------------------------------------7------------------------|
|----------------------------5-7----7b9==rp5-7-7-7---7b9==rp5-7-------------|
|--------------------4--4s6~-----6------------------------------6-----------|
|-----------2-4-4-2---------------------------------------------------------|
|-4tr6--4~------------------------------------------------------------------|
|---------------------------------------------------------------------------|



|----9------11-12---9-------------------------------9------12-11-9-----------|
|-/9---9----------9---9-12b14~---12b14-12-9-------9---12-9---------12-9------|
|-------------------------------------------11b13-----------------------11---|
|----------------------------------------------------------------------------|
|----------------------------------------------------------------------------|
|----------------------------------------------------------------------------|



|---------------------------------------------------------------------------|
|-12-9----9---------------17-19-19b21-19b21rp17----17-19-19b21-19b21~~------|
|------11---9h11~-----/18-----------------------18--------------------------|
|---------------------------------------------------------------------------|
|---------------------------------------------------------------------------|
|---------------------------------------------------------------------------|



|-19-19p16-----19-19p16----------------------16-------16----16-------------|
|----------17-----------17--19~--17h19-19b21----19b21----19----19-17-19----|
|-----------------------------------------------------------------------18-|
|--------------------------------------------------------------------------|
|--------------------------------------------------------------------------|
|--------------------------------------------------------------------------|



|---------------------------------------------------------------------------|
|-17------------------------------------------------19-17~------------------|
|----18-16----18p16-----------16s18-16~-------------------------------------|
|----------18-------18s16-14~------------16s18-16---------------------------|
|---------------------------------------------------------------------------|
|---------------------------------------------------------------------------|


[Chorus]

Bm                          A
We all want a world we can live in
   Bm                        A
We all want a world full of love
G
It's never too late
       A
It's never too soon
Bm
Whatever you can do is enough

[Repeat Chorus]

[Fade Out]

Chords:
Bm:  x24432
A:   x02220
D:   xx0232
G:   320033

TOP cifras de César & Peagá

  1. Manda Quem Pode
  2. Foi Embora o Boi Com a Corda
  3. Sua Perfeição
  4. Think Of Laura
  5. Best That You Can do
  6. Nosso Amor
  7. Arthur's Theme (Best That You Can Do)
  8. Fico Louco
  9. Science Fiction Double Feature
  10. Agora Vaza

Pela Web