Cifras Web
Chad Kroeger

Hero

Chad Kroeger

26 acessos

 Verso 1:
G#m                           E        
  I am so high, I can hear heaven
G#m                           E  
  I am so high, I can hear heaven       
    G          A/G              E5 (esse mi faça abafado!)
No heaven, no heaven don't hear me


Refrão:
                     G5 
And they say that a hero can save us
     A5                       B5   A5         
I'm not gonna stand here and wait
                     G5
I'll hold on to the wings of the eagles
A5                        E5 (esse mi faça abafado!)
Watch as they all fly away


Verso 2:
G#m                                E    
  Someone told me love will all save us
G#m                                       E
  But how can that be, look what love gave us|                        
                G                  A/G     
A world full of killing and blood-spilling
                  E5 (esse mi faça abafado!)
That world never came


Refrão:
                     G5 
And they say that a hero can save us
     A5                       B5   A5         
I'm not gonna stand here and wait
                     G5
I'll hold on to the wings of the eagles
A5                        E5
Watch as they all fly away


Solo:(Faça com o wah-wah e a base faça as notas do refrão) 
|--------------------------------------------------
|-------------------------------------------------- 
|-9-7-9-7-9-7-----9-7-9-7-9-7----------------------
|--------------9---------------8---9h10p9h10-8-8-8-
|--------------------------------------------------
|--------------------------------------------------
          

                                               E5 F5  F#5 G5
-------------------------------------------------------------------|
-9-7-9-7-9-7-----9-7-9-7-9-7---------------------------------------|
-9-7-9-7-9-7-----9-7-9-7-9-7-------------------9--10--11--12--12---|
-------------9---------------8----9h10p9h10----9--10--11--12--12---|
-----------------------------------------------7---8---9--10--10---|
-------------------------------------------------------------------|



Verso 3:
              G  
Now that the world isnt ending
     A                        B   
It's love that I'm sending to you
              G
It isn't the love of a hero
      A                        E5 (esse mi faça abafado!)
nd that's why I fear it won't do


Refrão:
                     G5 
And they say that a hero can save us
     A5                       B5   A5         
I'm not gonna stand here and wait
                     G5
I'll hold on to the wings of the eagles
A5                        E5
Watch as they all fly away


Final:

|-----------------|----------------|----------------|
|-----------------|----------------|----------------|
|-----------------|----------------|----------------|
|-5-5-5-5-5-5-7-7-|7-7-7-7-9-9-9-9-|9-9-9-9-9-9-7-7-|
|-5-5-5-5-5-5-7-7-|7-7-7-7-9-9-9-9-|9-9-9-9-9-9-7-7-|
|-3-3-3-3-3-3-5-5-|5-5-5-5-7-7-7-7-|7-7-7-7-7-7-5-5-|


|-----------------|----------------|----------------|
|-----------------|----------------|----------------|
|-----------------|----------------|----------------|
|-5-5-5-5-5-5-7-7-|7-7-7-7-2---7---|2-----------9---|
|-5-5-5-5-5-5-7-7-|7-7-7-7-2---7---|2-----------9---|
|-3-3-3-3-3-3-5-5-|5-5-5-5-0---5---|0-----------7---|  
(G A B) 
And they're watching us 
(Watching us)
As they all fly away

(G A E)
And they're watching us 
(Watching us)           B
As they all fly away 

TOP cifras de Chad Kroeger

  1. Hero
  2. Why Don't You & I
  3. Into The Night

Pela Web