Cifras Web
Chad Kroeger

Why Don't You & I

Chad Kroeger

9 acessos

Introdução: 
 
Verso 1: 
Bb        F   
Since the moment I spotted you 
Ab                             Eb 
Like walking round with little wings on my shoes 
Bb           F                       Ab 
My stomach's filled with the butterflies 
Eb            
umm and it's alright 
Bb        F 
Bouncing around from cloud to cloud 
Ab                         Eb 
I got the feeling like I'm never gonna come down 
Bb                 F                            Ab 
If I said I didn't like it then you'd know I'd lied 
Eb 
ummm 
 
Pré-refrão: 
Cm 
Every time I try to talk to you 
Eb 
I get tongue tied 
               Cm 
Turns out that every thing I say to you 
          Eb 
Comes out wrong and never comes out right so I say 

Bb5               F5 
Why don't you and I get together 
Bb5                               C5 
Take on the world be together forever 
Bb5        F5              Bb5 
     As we will tales will try again (') 
C5       Bb5               F5 
So I say why don't you and I hold each other 
Bb5                               C5 
Fly to the moon and straight on to heaven 
Bb5                F5                      Bb5 
'Cause without you they're never gonna let me in  
 
Ponte: 
 
Verso 2: 
Bb         F  
Wings been screaming, gonna break 
Ab                             Eb 
I think I've handled more than any man can take 
Bb           F                       Ab 
I'm like a lovesick puppy chasing you around 
Eb 
Oo and it's alright 
Bb        F 
Bouncing around from cloud to cloud 
Ab                         Eb 
I got the feeling like I'm never gonna come down 
Bb                 F                            Ab 
If I said I didn't like it then you'd know I'd lied 
Eb 
ummmm 
 
Pré-refrão: 
Cm 
Every time I try to talk to you 
Eb 
I get tongue tied 
               Cm 
Turns out that every thing I say to you 
          Eb 
Comes out wrong and never comes out right so I say 

Bb5               F5 
Why don't you and I get together 
Bb5                               C5 
Take on the world be together forever 
Bb5        F5              Bb5 
     As we will tales will try again (') 
C5       Bb5               F5 
So I say why don't you and I hold each other 
Bb5                               C5 
Fly to the moon and straight on to heaven 
Bb5                F5                      Bb5 
'Cause without you they're never gonna let me in  
 
Ponte: 
Cm                        Eb 
Slowly I begin to realize this is never gonna end 
              Cm                                Eb 
But about the same time, you walk by and I say 'Oh here we go again' oh 
 
Solo 1:(notas do refrão!) 
 
Pré-refrão: 
Cm 
Every time I try to talk to you 
Eb 
I get tongue tied 
               Cm 
Turns out that every thing I say to you 
          Eb 
Comes out wrong and never comes out right so I say 

Bb5               F5 
Why don't you and I get together 
Bb5                               C5 
Take on the world be together forever 
Bb5        F5              Bb5 
     As we will tales will try again (') 
C5       Bb5               F5 
So I say why don't you and I hold each other 
Bb5                               C5 
Fly to the moon and straight on to heaven 
Bb5                F5                      Bb5 
'Cause without you they're never gonna let me in  
 
Solo/Ponte:(notas do refrão!) 

Bb5               F5 
Why don't you and I get together 
Bb5                               C5 
Take on the world be together forever 
Bb5        F5              Bb5 
     As we will tales will try again (') 
C5       Bb5               F5 
So I say why don't you and I hold each other 
Bb5                               C5 
Fly to the moon and straight on to heaven 
Bb5                F5                      Bb5 
'Cause without you they're never gonna let me in  
 
-==Tablatura==- 
Introdução: 
 (0:00-0:18) 
e|-----------------------------------------------------|---------------------------------------- 
B|-13h15-13~-11h13-11~-10h11-10~-10-13-11-10-11-10-----|-------11------------------------------- 
G|-------------------------------------------------12^-|-10-12-------12-12-14-14-15-14-15-15-15- 
D|-----------------------------------------------------|----------12---------------------------- 
A|-----------------------------------------------------|---------------------------------------- 
E|-----------------------------------------------------|---------------------------------------- 
 
e|-----------------------------------13---------------------------| 
B|-13-15-15-15-15-15-16-15--15-13-15----16-15-13----13/15--13/15--| 
G|-----------------------------------------------15---------------| 
D|----------------------------------------------------------------| 
A|----------------------------------------------------------------| 
E|----------------------------------------------------------------| 
 
Verso 1: 
     (0:22)           (0:27)                (0:34)                (0:38) 
e|--------------------------------------------------------------------------------- 
B|------------------------11--8(v)--------6-------------------------11------------- 
G|---3h5--3--------7-8-10-------------------5--5h7p5----------10h12----12-12--12--- 
D|---------------------------------------------------8----------------------------- 
A|--------------------------------------------------------------------------------- 
E|--------------------------------------------------------------------------------- 
 
Pré-Refrão: 
       (0:42)                     (0:48) 
e|-------------------------------------------------------------------- 
B|---15-13-11-11----------------/15---18-16-15-13-13----13h15--------- 
G|----------------------12-12------------------------15-------15-15--- 
D|-------------------------------------------------------------------- 
A|-------------------------------------------------------------------- 
E|-------------------------------------------------------------------- 
 
Refrão: 
       (0:56)                   (1:01)                
e|----------------------/20-18----------18-20-18------ 
B|---15-13-11-11---------------20-18-20----------18--- 
G|---------------------------------------------------- 
D|---------------------------------------------------- 
A|---------------------------------------------------- 
E|---------------------------------------------------- 
        (1:06)               (1:08) 
e|-----------------------15--------------------- 
B|---15-13-11-11h13---------15-15-15-15--------- 
G|--------------------------------------15h17--- 
D|---------------------------------------------- 
A|---------------------------------------------- 
E|---------------------------------------------- 
 
Ponte:   (1:15-1:32) 
e|------------------------------------------------------|------------------------------------- 
B|-13h15-13~-11h13-11~-10h11-10~--10-13-11-10-11-10-----|--------11^-------11^----13^-15-13^-- 
G|--------------------------------------------------12^-|--10-12----12--12-------------------- 
D|------------------------------------------------------|------------------------------------- 
A|------------------------------------------------------|------------------------------------- 
E|------------------------------------------------------|------------------------------------- 
 
E|----15-15-17-17-18-18-17-18-20-18-20-20^(22)-22-22-22-22-18-18-20--------| 
B|-15---------------------------------------------------------------20-20^-| 
G|-------------------------------------------------------------------------| 
D|-------------------------------------------------------------------------| 
A|-------------------------------------------------------------------------| 
E|-------------------------------------------------------------------------| 
 
Verso 2:                                           very 
            (1:40-1:43)                     (1:45) quick           (1:47) 
e|----------------------------------------------------------------------------------- 
B|---10/11--10/11---------------------------------10h11------------------------------ 
G|---11/12--11/12---10-------------------------------------10------------------------ 
D|---------------------10-10--10h12p10---8h10-----------------10-10--10h12p10--8h10-- 
A|----------------------------------------------------------------------------------- 
E|----------------------------------------------------------------------------------- 
 
Pré-refrão: 
         (1:52)                          (1:56)                  (1:58) 
e|---9h10/21---18h20--18-20---------13-15-18-15--15h18-------15-13--------------- 
B|-----------------------------------------------------------------15-13--------- 
G|-----------------------------------------------------------------------15h17--- 
D|------------------------------------------------------------------------------- 
A|------------------------------------------------------------------------------- 
E|------------------------------------------------------------------------------- 
 
Refrão: 
        (2:02) 
e|-------------------------------------------------------- 
B|---13h15p13--13h15p13--11--11h13------------------------ 
G|---------------------------------12-10------------------ 
D|---------------------------------------10h12p10--------- 
A|------------------------------------------------13------ 
E|-------------------------------------------------------- 
 
e|-------------------------------------- 
B|---15-13-11-11---11h13p11---11h13p11-- 
G|-------------------------------------- 
D|-------------------------------------- 
A|-------------------------------------- 
E|-------------------------------------- 
 
       (2:08)                   (2:14)  
e|--------------------/15----13-------------------------13--------------------------- 
B|---13h15---11h13--------------15-13-------15-13-11-11----15-13-11---13h15---11h13-- 
G|------------------------------------15--------------------------------------------- 
D|----------------------------------------------------------------------------------- 
A|----------------------------------------------------------------------------------- 
E|----------------------------------------------------------------------------------- 
 
        (2:21)                                  real fast            (2:27) 
e|---18/22(v)----18-18--18h20p18----------------------------------------------------- 
B|-------------------------------20---------14h15-14h15-14h15-----16-15-------13----- 
G|----------------------------------------------------------------------12-15----15-- 
D|----------------------------------------------------------------------------------- 
A|----------------------------------------------------------------------------------- 
E|----------------------------------------------------------------------------------- 
 
        (2:32) 
e|------------------------------------------ 
B|------------------------------------------ 
G|------------------------------------------ 
D|---12-13-12---15-13-12-------------------- 
A|-----------------------13-13-13-13h15p13-- 
E|------------------------------------------ 
 
Solo 1: (2:43-3:06) 
e|--15-----15-----15-----15-17-18-17-15-15---| 
B|--18b20~-18b20~-18b20~---------------------| 
G|-------------------------------------------| 
D|-------------------------------------------| 
A|-------------------------------------------| 
E|-------------------------------------------| 
 
 
e|--------15-15----15----15--18b20b18--15-15---| 
B|--------------18----18-----------------------| 
G|--17h19--------------------------------------| 
D|---------------------------------------------| 
A|---------------------------------------------| 
E|---------------------------------------------| 
 
 
e|--20p18h20p18h20p18h20p18h20p18-20b22~~~~--18-18-18-20-15-15--18----| 
B|--------------------------------------------------------------------| 
G|--------------------------------------------------------------------| 
D|--------------------------------------------------------------------| 
A|--------------------------------------------------------------------| 
E|--------------------------------------------------------------------| 
 
 
e|-------------------18~--17-18-17-15----15--18p15----15-15~-18p15---------------| 
B|--15-15----18--15-------------------18-----------18--------------18------------| 
G|--------15----------------------------------------------------------17~-17-15--| 
D|-------------------------------------------------------------------------------| 
A|-------------------------------------------------------------------------------| 
E|-------------------------------------------------------------------------------| 
 
                        Bb 
e|-----------------------------------------------------------| 
B|----------16b18~~-----15-15-15-15-15-15--------------------| 
G|--17b19~~---------15~-15-15-15-15-15-15--------------------| 
D|----------------------15-15-15-15-15-15--15----------------| 
A|--------------------------------------------17-15-15/13~---| 
E|-----------------------------------------------------------| 
 
Pré-Refrão: 
  (3:06) 
e|---8---8---8---10---6---6---6---- 
B|-----8---8---8----8---8---8---8-- 
G|--------------------------------- 
D|--------------------------------- 
A|--------------------------------- 
E|--------------------------------- 
 
Refrão: 
      (3:18)                       (3:25) 
E|-------------------/15-------------------------------------------------------------- 
B|---13h15--13----------------18--15---------15--13-13-13h15--13---------------------- 
G|-------------15--------------------17-15-----------------------15-15-12---15h17p15-- 
D|------------------------------------------------------------------------------------ 
A|------------------------------------------------------------------------------------ 
E|------------------------------------------------------------------------------------ 
 
      (3:29)             (3:32)               
e|---------------------------15--------------- 
B|---13h15--13h15------15-18----18-15--------- 
G|------------------------------------17-15--- 
D|-------------------------------------------- 
A|-------------------------------------------- 
E|-------------------------------------------- 
 
                      (3:37) 
e|-------------------------18-18-18/22--18-18-20-18--- 
B|---13h15--13(v)----15-17--------------------------20 
G|---------------------------------------------------- 
D|---------------------------------------------------- 
A|---------------------------------------------------- 
E|---------------------------------------------------- 
 
      (3:41)                                              
e|------------------------------------------------------ 
B|------------------------------------------------------ 
G|---14h15--14---15/14--12---14/1514-------12-15-12---- 
D|------------------------------------12-15------------- 
A|------------------------------------------------------ 
E|------------------------------------------------------ 
 
Solo/Ponte: 
      (3:47) 
e|--------------------------------------------------------- 
B|----------------------------------13-13h15-15-15-15------ 
G|----14h15--14---15/14--12---12-15-------------------17-15 
D|--------------------------------------------------------- 
A|--------------------------------------------------------- 
E|--------------------------------------------------------- 
 
      (3:52) 
e|------------------------------------------------------ 
B|------------------------------------------------------ 
G|---14h15--14---15/14--12---14/1514-------12-15-12---- 
D|------------------------------------12-15------------- 
A|------------------------------------------------------ 
E|------------------------------------------------------ 
 
      (3:58)                              Refrão:    (4:04) 
e|---17h18--17--1817-15---------------------------/22-22-22-18-18--18h20p18---- 
B|-----------------------15-15-15--151311----------------------------------20-- 
G|----------------------------------------------------------------------------- 
D|----------------------------------------------------------------------------- 
A|----------------------------------------------------------------------------- 
E|----------------------------------------------------------------------------- 
 
      (4:08) 
e|---------------------------------------------------------------------- 
B|----------------------------------------18---------------------------- 
G|---19-19---19-19-19---19-19-19---19-19-----19-17-15---15-15---15-15-15 
D|---------------------------------------------------------------------- 
A|---------------------------------------------------------------------- 
E|---------------------------------------------------------------------- 
 
                                (4:15)            (4:17) 
e|-----------------------------------------------------18-------18----20-18-- 
B|-----------------------------------------------18-20----20-20----20-------- 
G|---15-15-15-15--15h17p15------17h19-17-19---------------------------------- 
D|--------------------------------------------------------------------------- 
A|--------------------------------------------------------------------------- 
E|--------------------------------------------------------------------------- 
 
       (4:21)                                                  (4:26) 
e|-------------------------------------------22--22--20-----------20h22---20-22 
B|----------------------------------------20------------20--------------------- 
G|---17h19-17-19-----19-------17-------19-------------------------------------- O som vai  
D|----------------------17-20-------------------------------------------------- sumindo ! 
A|----------------------------------------------------------------------------- 
E|-----------------------------------------------------------------------------

TOP cifras de Chad Kroeger

  1. Hero
  2. Why Don't You & I
  3. Into The Night

Pela Web