Cifras Web
Chemistry

Period

Chemistry

11 acessos


Intro: C#m  A  E  B  A  B  C#m
E|---0-2-2-0---0-|---0-4-4-2-0-2-|-0-----4-2-0----|
B|-2---------4---|-2-------------|---4-2------4-2-|
G|---------------|---------------|----------------|
D|---------------|---------------|----------------|
A|---------------|---------------|----------------|
E|---------------|---------------|----------------|


   C9
Owari naki tabi no tochuu
G
Emtachidomarisou na toki
    C9         D         G
EmFukai tameiki kobosu bokura wa

C9            D            G   D   Em
Tsukamikakete wa mata hanareteitta
Am    G C              B
Demo ima wa mou nanimo osoreru koto wa nai
C#m         A
Kokoro wo tsunagu
E        B
Tsuyoi kizuna wa
C#m       A        B
Keshite hodokewa shinaisa
C#m       A      E      B
Sagashi tsuzukete tadori tsuita
A         B   C#m
Kono basho de PERIOD ni

( C#m )


(  A  E  B  A  B  A )
E|---0-2-2-0---0-|---0-4-4-2-0-2-|-0-----0---2-0-|
B|-2---------4---|-2-------------|---4-2---4-----|
G|---------------|---------------|---------------|
D|---------------|---------------|---------------|
A|---------------|---------------|---------------|
E|---------------|---------------|---------------|


C9           D
Ai ni michita nukumori
G
Emkaradajuu kakemeguru
C9          D        G       Em
Nidoto kieru koto nai kioku ga...
C9            D
Kanarazu yakusoku hatashite
G     Em
kimi wo tsuretekuyo
Am                 G A
fureru (yume wo) negai (daite)
C             B
subete uta ni nosete
C#m  A
Genjitsu kara
E        Bm
e wo sorasazu ni
C#m    A     B
Tachimukau yuuki wo
C#m       A      E        B
Kanashimi ikari chikara ni kaete
A        B        A      B
Unmei wa sugu soba ni
G#m C#m   B    A    B
Mukau saki wa hora
G#m
Kirameku sekaiBoku wo furuwasu
F#      C#
kono kansei wo
D#m       B        C#
Uragiru koto wa shinaisa
D#m     B
Tomo ni ikiteku
F#         Bm
irai no tame ni
G#m      C#     D#m   C# B
Kono basho de PERIOD ni
G#m      C#     D#m
Shinjitsu wo yubisaki ni

TOP cifras de Chemistry

  1. Period

Pela Web